» » »

Kaiser Chiefs - Never Miss A Beat Tabs

Artists:  A B C D E F G H I J K L M N O P Q R S T U V W X Y Z # 

Never Miss A Beat Tabs

(ver. 2) Click to play this song!
Kaiser Chiefs
 Rating:
4/5 (4 votes)

 Never Miss A Beat lessons Tabs too difficult? Try these video lessons and learn fast
 
                  INTRO 
                             _____                 _____
      Bass arr. for guitar  |1-3.                 |4. 
|| ------------------------|---------------- ||  |-----------------|| ----------------- ||
|| ------------------------|---------------- ||  |-----------------|| ----------------- ||
||o------------------------|----------------o||  |-----------------||o-----------------o||
||o------------------------|------------5---o||  |-----------------||o-----------------o||
|| ---10-10-10-10-10-10-10-|-10\------------ ||  |-10\-------------|| ----------------- ||
|| ------------------------|-----3-3--3---3- ||X4|-----3-3-3-3-3-3-|| -3-3-3-3-3-3-3-3- ||X4
|                             (\: slide down)
|  Lead guitar                                                let ring
|| ------------------------|---------------- ||  |---------------3-|| ------3-------3-- ||
|| ------------------------|---------------- ||  |-------------3---|| --3-------3------ ||
||o------------------------|----------------o||  |-----------------||o-----------------o||
||o------------------------|----------------o||  |-----------------||o-----------------o||
|| ------------------------|---------------- ||  |-----------------|| ----------------- ||
|| ------------------------|---------------- ||X4|-----------------|| ----------------- ||X4


  VERSE I
 (there isn't any guitar playing but you can stall with a palm-muted G5: 355XXX )

G
What did you learn today? - I learnt nothing

What did you do today? - I did nothing

What did you learn at school? - I didn't go

Why didn't you go to school? - I don't know


  BRIDGE

    Bb                                  G
|| -----3-6/-18-|----17-----15-----15\|------3-------3--|------3-------3-- ||
|| ---3---------|-18-----17-----15----|--3-------3------|--3-------3------ ||
||o-3-----------|---------------------|-----------------|-----------------o||
||o-------------|---------------------|-----------------|-----------------o||
|| -------------|---------------------|-----------------|----------------- ||
|| -------------|---------------------|-----------------|----------------- ||X2
          (/: slide up)

     Bb           G
It's cool to know nothing
     Bb           G
It's cool to know nothing


  VERSE II 
 (Whitey plays this on live shows)

  G       let ring
|-----|---------|-3---|------|-3----|------|-3----|------|------|
|-----|-------3-|-----|----3-|------|----3-|------|------|------|
|-0---|-(0)-----|-----|------|------|------|------|------|------|
|-0---|-(0)-----|-----|------|------|------|------|------|------|
|-2---|-(2)-----|-----|------|------|------|------|------|------|
|-3---|-(3)-----|-----|------|------|------|------|------|------|
        (X): keep note ringing

G
Television's on the blink - There's nothing on it

I really want a really big coat - With words on it

What do you want for tea? - I want crisps

Why don't you join the team? - I just did


  BRIDGE

    Bb                                  G
|| -----3-6/-18-|----17-----15-----15\|------3-------3--|------3-------3-- ||
|| ---3---------|-18-----17-----15----|--3-------3------|--3-------3------ ||
||o-3-----------|---------------------|-----------------|-----------------o||
||o-------------|---------------------|-----------------|-----------------o||
|| -------------|---------------------|-----------------|----------------- ||
|| -------------|---------------------|-----------------|----------------- ||X2

     Bb           G
It's cool to know nothing
     Bb           G
It's cool to know nothing

   G
|------3-------3--|------3-------3--|
|--3-------3------|--3-------3------|
|-----------------|-----------------|
|-----------------|-----------------|
|-----------------|-----------------|
|-----------------|-----------------|

G
Take a look, take a look, take a look at the...


  CHORUS

    F5                                                  C#5               Eb5               
|| -------------------------|-------------------------|-----------------|----------------- ||
|| -------------------------|-------------------------|-----------------|----------------- ||
||o-10-10-10-10-10-10-10-10-|-10-10-10-10-10-10-10-10-|-6-6-6-6-6-6-6-6-|-8-8-8-8-8-8-8-8-o||
||o-10-10-10-10-10-10-10-10-|-10-10-10-10-10-10-10-10-|-6-6-6-6-6-6-6-6-|-8-8-8-8-8-8-8-8-o||
|| -8--8--8--8--8--8--8--8--|-8--8--8--8--8--8--8--8--|-4-4-4-4-4-4-4-4-|-6-6-6-6-6-6-6-6- ||
|| -------------------------|-------------------------|-----------------|----------------- ||X2

   F5
...kids on the street

No, they never miss a beat
         C#5
No, they never miss a beat
      Eb5
Never miss a beat
             F5
Never miss a beat - beat - beat - beat

                   C#5
Take a look at the kids on the street
         Eb5
No, they never miss a beat

  F5                                                  F
|-------------------------|-------------------------|-------------------------|-------------------------|
|-------------------------|-------------------------|-10-10-10-10-10-10-10-10-|-10-10-10-10-10-10-10-10-|
|-10-10-10-10-10-10-10-10-|-10-10-10-10-10-10-10-10-|-10-10-10-10-10-10-10-10-|-10-10-10-10-10-10-10-10-|
|-10-10-10-10-10-10-10-10-|-10-10-10-10-10-10-10-10-|-10-10-10-10-10-10-10-10-|-10-10-10-10-10-10-10-10-|
|-8--8--8--8--8--8--8--8--|-8--8--8--8--8--8--8--8--|-8--8--8--8--8--8--8--8--|-8--8--8--8--8--8--8--8--|
|-------------------------|-------------------------|-------------------------|-------------------------|

         F5
No, they never miss a beat

Never miss a beat

Never miss a
F
Never miss a beat

Never miss a beat - Woah!!


  INTERLUDE

   Bass arr. for guitar
|| ------------------------|---------------- ||
|| ------------------------|---------------- ||
||o------------------------|----------------o||
||o------------------------|------------5---o||
|| ---10-10-10-10-10-10-10-|-10\------------ ||
|| ------------------------|-----3-3--3---3- ||X4
|
|  Lead guitar
|    let ring
|| ---------3-----------3--|------3------3-- ||
|| ---3-----------3--------|--3-------3----- ||
||o------------------------|----------------o||
||o------------------------|----------------o||
|| ------------------------|---------------- ||
|| ------------------------|---------------- ||X4


  VERSE III

  G       let ring
|-----|---------|-3---|------|-3----|------|-3----|------|------|
|-----|-------3-|-----|----3-|------|----3-|------|------|------|
|-0---|-(0)-----|-----|------|------|------|------|------|------|
|-0---|-(0)-----|-----|------|------|------|------|------|------|
|-2---|-(2)-----|-----|------|------|------|------|------|------|
|-3---|-(3)-----|-----|------|------|------|------|------|------|

G
Here comes the referee - With lights flashing

Best bit of the day - Now that's living

Why don't you run away? - Are you kidding?

What is the golden rule? - Is say nothing


  BRIDGE

    Bb                                  G
|| -----3-6/-18-|----17-----15-----15\|------3-------3--|------3-------3-- ||
|| ---3---------|-18-----17-----15----|--3-------3------|--3-------3------ ||
||o-3-----------|---------------------|-----------------|-----------------o||
||o-------------|---------------------|-----------------|-----------------o||
|| -------------|---------------------|-----------------|----------------- ||
|| -------------|---------------------|-----------------|----------------- ||X2

     Bb           G
It's cool to know nothing
     Bb           G
It's cool to know nothing

   G
|------3-------3--|------3-------3--|
|--3-------3------|--3-------3------|
|-----------------|-----------------|
|-----------------|-----------------|
|-----------------|-----------------|
|-----------------|-----------------|

G
Take a look, take a look, take a look at the...


  CHORUS

    F5                                                  C#5               Eb5               
|| -------------------------|-------------------------|-----------------|----------------- ||
|| -------------------------|-------------------------|-----------------|----------------- ||
||o-10-10-10-10-10-10-10-10-|-10-10-10-10-10-10-10-10-|-6-6-6-6-6-6-6-6-|-8-8-8-8-8-8-8-8-o||
||o-10-10-10-10-10-10-10-10-|-10-10-10-10-10-10-10-10-|-6-6-6-6-6-6-6-6-|-8-8-8-8-8-8-8-8-o||
|| -8--8--8--8--8--8--8--8--|-8--8--8--8--8--8--8--8--|-4-4-4-4-4-4-4-4-|-6-6-6-6-6-6-6-6- ||
|| -------------------------|-------------------------|-----------------|----------------- ||X2

   F5
...kids on the street

No, they never miss a beat
         C#5
No, they never miss a beat
      Eb5
Never miss a beat
             F5
Never miss a beat - beat - beat - beat

                   C#5
Take a look at the kids on the street
         Eb5
No, they never miss a beat

  F5                                                  F
|-------------------------|-------------------------|-------------------------|-------------------------|
|-------------------------|-------------------------|-10-10-10-10-10-10-10-10-|-10-10-10-10-10-10-10-10-|
|-10-10-10-10-10-10-10-10-|-10-10-10-10-10-10-10-10-|-10-10-10-10-10-10-10-10-|-10-10-10-10-10-10-10-10-|
|-10-10-10-10-10-10-10-10-|-10-10-10-10-10-10-10-10-|-10-10-10-10-10-10-10-10-|-10-10-10-10-10-10-10-10-|
|-8--8--8--8--8--8--8--8--|-8--8--8--8--8--8--8--8--|-8--8--8--8--8--8--8--8--|-8--8--8--8--8--8--8--8--|
|-------------------------|-------------------------|-------------------------|-------------------------|

         F5
No, they never miss a beat

Never miss a beat

Never miss a
F
Never miss a beat

Never miss a beat - Woah!!


  INTERLUDE
                                                   
|| ------------------------|---------------- ||  |--------------------|-----------------|
|| ------------------------|---------------- ||  |--------------------|-----------------|
||o------------------------|----------------o||  |--------------------|-----------------|
||o------------------------|------------5---o||  |-8~8~8~8~10~10~10~8~|~8~8~7~7~7~7~7~7~|  Not really sure
|| ---10-10-10-10-10-10-10-|-10\------------ ||  |--------------------|-----------------|  about the effect
|| ------------------------|-----3-3--3---3- ||X4|--------------------|-----------------|  he uses here.

    G*
|| -15-15-15-15-15-15-15-15-|-15-15-15-15-15-15-15-15- ||
|| -15-15-15-15-15-15-15-15-|-15-15-15-15-15-15-15-15- ||
||o-16-16-16-16-16-16-16-16-|-16-16-16-16-16-16-16-16-o||
||o-17-17-17-17-17-17-17-17-|-17-17-17-17-17-17-17-17-o||
|| -17-17-17-17-17-17-17-17-|-17-17-17-17-17-17-17-17- ||
|| -15-15-15-15-15-15-15-15-|-15-15-15-15-15-15-15-15- ||X2

(lyrics enter the second time)
G*
Take a look, take a look, take a look at the...


  LAST CHORUS
 (Guest vocals by Lily Allen!)

    F5                                                  C#5               Eb5               
|| -------------------------|-------------------------|-----------------|----------------- ||
|| -------------------------|-------------------------|-----------------|----------------- ||
||o-10-10-10-10-10-10-10-10-|-10-10-10-10-10-10-10-10-|-6-6-6-6-6-6-6-6-|-8-8-8-8-8-8-8-8-o||
||o-10-10-10-10-10-10-10-10-|-10-10-10-10-10-10-10-10-|-6-6-6-6-6-6-6-6-|-8-8-8-8-8-8-8-8-o||
|| -8--8--8--8--8--8--8--8--|-8--8--8--8--8--8--8--8--|-4-4-4-4-4-4-4-4-|-6-6-6-6-6-6-6-6- ||
|| -------------------------|-------------------------|-----------------|----------------- ||X2

   F5
...kids on the street

No, they never miss a beat
         C#5
No, they never miss a beat
      Eb5
Never miss a beat
             F5
Never miss a beat - beat - beat - beat

                   C#5
Take a look at the kids on the street
         Eb5
No, they never miss a beat

  F5                                                  F
|-------------------------|-------------------------|-------------------------|-------------------------|
|-------------------------|-------------------------|-10-10-10-10-10-10-10-10-|-10-10-10-10-10-10-10-10-|
|-10-10-10-10-10-10-10-10-|-10-10-10-10-10-10-10-10-|-10-10-10-10-10-10-10-10-|-10-10-10-10-10-10-10-10-|
|-10-10-10-10-10-10-10-10-|-10-10-10-10-10-10-10-10-|-10-10-10-10-10-10-10-10-|-10-10-10-10-10-10-10-10-|
|-8--8--8--8--8--8--8--8--|-8--8--8--8--8--8--8--8--|-8--8--8--8--8--8--8--8--|-8--8--8--8--8--8--8--8--|
|-------------------------|-------------------------|-------------------------|-------------------------|

         F5
No, they never miss a beat

Never miss a beat

Never miss a
F
Never miss a beat

Never miss a beat
            
Submit corrections


        Never Miss A Beat lessons Hard to play? Try these video lessons and learn fast Never Miss A Beat lessons
        
↑ Back to top | Tablatures and chords for acoustic guitar and electric guitar, ukulele, drums are parodies/interpretations of the original songs. You may use it for private study, scholarship, research or language learning purposes only