» » »

Just Surrender - In Your Silence Chords

Artists:  A B C D E F G H I J K L M N O P Q R S T U V W X Y Z # 

In Your Silence Chords

(ver. 1) Click to play this song!
Just Surrender
 Rating:
4.3/5 (6 votes)


 In Your Silence lessons Tabs too difficult? Try these video lessons and learn fast
 
                Just Surrender
In your Silence
2005

Tuning: Standard EADGBe

Key: Eb

Chords used:
Cm -   x35543
Bb/D - x587xx
Eb -   x68886
G# -   466544
Bb -   x13331


Intro: Cm--Bb/D-Eb-G#--Bb (x2)

Guitar 2: Very fast!!! Cm--Bb/D-Eb
e|---------------3--------------------|
B|-----------4-------4----------------|
G|-5-5-5-5-5---3---3---4-7-7-7--8-8-8-|
D|-5-5-5-5-5-------------8-8-8--8-8-8-|
A|-3-3-3-3-3-------------5-5-5--6-6-6-|
E|------------------------------------|

Guitar 2: G#--Bb
e|-----------3---6-4-3---------|
B|-------------4-------4-------|
G|-----------------------3-3-3-|
D|-6-6-6-6-6-------------3-3-3-|
A|-6-6-6-6-6-------------1-1-1-|
E|-4-4-4-4-4-------------------|


Verse 1:
Cm
  Tell me dear
        G#
How can I make this more clear
     Cm               G#
When I say this is forever
                       Cm
(When I say this is forever)
                   G#
And how is that so wrong
      Cm                         G#
Is it too much to ask to not be alone
 Eb
alone


Guitar 2: very fast!!! Eb in "alone"
e|-6-----------|
B|---4p3h4p3---|
G|-----------3-|
D|-------------| x4
A|-------------|
E|-------------|


Cm                 G#
  So what did I do wrong
     Cm                           G#
I'll take it back and start over again (again)


Chorus:
Eb                        Cm
  Well I fall asleep with you
               G#
And I wake up alone, and unwanted
Bb
In your silence
Eb                      Cm
  And I wish I could destroy you
                       G#
But instead I'll just adore you
              Bb
And know that you were silent


Guitar 2: in "and I wish I could destroy you..."
e|-6-----------|
B|---4p3h4p3---|
G|-----------3-|
D|-------------| x4
A|-------------|
E|-------------|


Verse 2:
Cm                      G#
  I'll cross my fingers tight
     Cm               G#
And sleep to dream of you
             Cm(silent)
Cause when I wake
  G#
I know I'll be alone
    Cm              G#(palm mute)
But its worth it for you...for you


(Repeat Chorus)
(Repeat Intro x4)


Bridge: Palm mute and silent
Eb     Cm           G#            Bb
  I'd sleep through any dream for you


With drums already: But still palm mute
Eb    Cm          G#
  I'd wake though anything...
     Bb
Your everything to me (you're everything to me)


Guitar 2: in "I wake though everything..."
e|-------11-------11-|
B|-8h9p8----8h9p8----|
G|-------------------|
D|-------------------| repeat many times
A|-------------------|
E|-------------------|


(Repeat Chorus while singing bridge in 2nd voice!!!)
(Repeat intro twice)

while I'm still waiting
            
Submit corrections



        In Your Silence lessons Hard to play? Try these video lessons and learn fast In Your Silence lessons
        
↑ Back to top | Tablatures and chords for acoustic guitar and electric guitar, ukulele, drums are parodies/interpretations of the original songs. You may use it for private study, scholarship, research or language learning purposes only