» » »

Just Jinger - Shallow Waters Tabs

Artists:  A B C D E F G H I J K L M N O P Q R S T U V W X Y Z # 

Shallow Waters Tabs

(ver. 1) Click to play this song!
Just Jinger
 Rating:
4/5 (4 votes)

 Shallow Waters lessons Tabs too difficult? Try these video lessons and learn fast
 
                Shallow waters by Just Jinger

This is a great song by,in my opinion,South Africas' greatest band.

Chords:
C :032010
Am:002210
G :320001
Dm:000231

Intro:

   C                              Am
|------------------------------|----------------------------------|
|-----0 h 1-------0 h 1--------|-------0 h 1--------0 h 1---0h1---|
|------------------------------|----------------------------------|
|------------------------------|----2------------2----------------|
|--3-----------3-----------3---|--0------------0------------------|
|------------------------------|----------------------------------|

   G                                 Dm
|---------------------------------|-------0 h 1------0h1-3-1-0----|
|-------0 h 1-------0 h 1---1h3---|----------------------------3--|
|---------------------------------|----2--------------------------|
|----0-----------0----------------|--0------------0---------------|
|---------------------------------|-------------------------------|
|--3-----------3------------------|-------------------------------|



____________________________________________________________________________________________________________________________
this part is done by me. the rest is all by the guy whose name is on 
the top - i take no credit for it.

ok so this is played the first part of the 1st verse. if the tab is unclear - sorry i 
tried my best. if u think it sucks well think of it this way i can play it and u cant.
enjoy

sath



|-----------------------------------------
|---------1----3-----then slide that entire Cadd9 formation 2 frets up  playing strings 
|------0----0----------------------------                  e, B , A (finger pickin of course) 
|----------------------------------------
|---3----------------------------------
|-------------------------------------       X 2

|--------------------------------
|-------1----3---3----1---1---0----0----3h1p0--
|-----2---2----2---2----2---2----2---2-----
|-------------------------
|--0------------------------
|---------------------------


|--------------------------------
|-------0----3---3----1---1----0----0----1h3
|-----0---0----0---0----0---0-----0---0---
|-------------------------
|--------------------------
|--3-------------------------

|-----------3---3-----1----
|------3------3---3---3----
|----2---2-----------------
|--0-----------------------
|--------------------------
|--------------------------


____________________________________________________________________________________________________________________________

Lyrics:

C               Am                  G     Dm
I'm leaving, tomorrow, and I don't know, why.
C                                   Am
There's something that's not right with my soul,
   G               Dm
I have no goal, I have no goal.

                       C
I'm leaving in shallow waters,
                     Am
I'm laeving all my dreams of you.
           G               Dm
I can't go on. I want to run away.

                  C       Am
I think I'll go today, tomorrow
                G                        Dm
Well, it won't help me at all. It won't help me at all.
C                                      Am
There's something that I told you and you don't know,
            G                   Dm
That it's true, oh, that it's true now.

                         C
I'm leaving in shallow waters,
                     Am
I'm leaving all my dreams of you.
            G             Dm
I can't go on. I want to run away.

Am     G  Dm
Ah wo ah ah x2

                         C
I'm leaving in shallow waters,
         Am
All my dreams of you
           G              Dm
I can't go on. I want to run away, run away

                  C                   Am
I think I'll go today, cos you know tomorrow,
          G                        Dm
It won't help me at all, it won't help me at all
          C              Am
Shallow waters, all my dreams of you
               G                           Dm       C
And I can't go on, I'm leaving in shallow water.
            
Submit corrections


        Shallow Waters lessons Hard to play? Try these video lessons and learn fast Shallow Waters lessons
        
↑ Back to top | Tablatures and chords for acoustic guitar and electric guitar, ukulele, drums are parodies/interpretations of the original songs. You may use it for private study, scholarship, research or language learning purposes only