» » »

Justin Bieber - Somebody To Love Tabs

Artists:  A B C D E F G H I J K L M N O P Q R S T U V W X Y Z # 

Somebody To Love Tabs

(ver. 2) Click to play this song!
Justin Bieber
 Rating:
4/5 (4 votes)

 Somebody To Love lessons Tabs too difficult? Try these video lessons and learn fast
 
                (Intro)
-----------------------------------------------------------------
SOMEBODY TO LOVE - Justin Bieber ft. Usher
-----------------------------------------------------------------

Tuning:Standard (EADGBe)

Before I begin I'm going to get very defensive and note that this part, basically 
the only part of the song that is transferable to guitar has been shamefully stuck 
in my head.  It is as it is, for I bring you the guitarified version of the synth 
melody that keeps playing in this song.


I know this tab says intro, but you can play this part really anywhere in the 
song.  Its present in the back of a lot of it.


e|------15-18-------15-18-------13-18-------13-18|
B|---16----------16-------15-15----------15------|
G|17----------17----------------------15---------| \
D|-----------------------------------------------|  \
A|-----------------------------------------------|   \
E|-----------------------------------------------|    \
                                                       x2
e|------17-20-------17-20-------17-20-------17-20|    /
B|---18----------18----------18----------18------|   /
G|17----------17----------17----------17---------|  /
D|-----------------------------------------------| /
A|-----------------------------------------------|
E|-----------------------------------------------|


And repeat it as many times as youd like around the song!
            
Submit corrections


        Somebody To Love lessons Hard to play? Try these video lessons and learn fast Somebody To Love lessons
        
↑ Back to top | Tablatures and chords for acoustic guitar and electric guitar, ukulele, drums are parodies/interpretations of the original songs. You may use it for private study, scholarship, research or language learning purposes only