» » »

Justin Bieber - One Time Tabs

Artists:  A B C D E F G H I J K L M N O P Q R S T U V W X Y Z # 

One Time Tabs

(ver. 2) Click to play this song!
Justin Bieber
 Rating:
4/5 (4 votes)

 One Time lessons Tabs too difficult? Try these video lessons and learn fast
 
                
capo 5 (if you want to play just like guitarboy702, but you can play without a capo)

ok...i'm not sure if i got everything just like he plays, but if i missed out 
something, please comment

if it doesn't sound right to you, watch the video and try to figure out how he plays it


Intro:

   Bm7         G                D           A
e|----------x----------x----------------2--x-----------x---------|
B|-------3--x--------3-x--------------3----x--------2--x---------|
G|-----2----x------0---x------0-----2------x------2----x------2--|
D|---0------x----0-----x----0-----0--------x----2------x----2----|
A|-2--------x----------x-------------------x--0--------x--0------|
E|----------x--3-------x--3----------------x-----------x---------|

e|----------x----------x----------------2--x-------x--|
B|-------3--x--------3-x--------------3----x--2----x--|
G|-----2----x------0---x------0-----2------x--2----x--|
D|---0------x----0-----x----0-----0--------x-------x--|
A|-2--------x----------x-------------------x--0----x--|
E|----------x--3-------x--3----------------x-------x--|


This is played almost for the entire song (Verse/Chorus):

   Bm7        G          D               A
e|----------x----------x---------------2--x---------x---------|
B|-------3--x--3-------x-------------3----x--2------x---------|
G|-----2----x--0-------x-----0'----2------x--2------x-----2*'-|
D|---0------x----------x---0'----0--------x---------x---2*'---|
A|-2--------x----------x------------------x--0------x-0*'-----|
E|----------x--3-------x-3'---------------x---------x---------|


Intro


* do not play at the end of the pre-chorus and after "I'ma tell you one time" in the chorus

' do not play after verse 2
            
Submit corrections


        One Time lessons Hard to play? Try these video lessons and learn fast One Time lessons
        
↑ Back to top | Tablatures and chords for acoustic guitar and electric guitar, ukulele, drums are parodies/interpretations of the original songs. You may use it for private study, scholarship, research or language learning purposes only