» » »

Justin Bieber - Baby Tabs

Artists:  A B C D E F G H I J K L M N O P Q R S T U V W X Y Z # 

Baby Tabs

(ver. 5) Click to play this song!
Justin Bieber
 Rating:
4.3/5 (21 vote)

 Baby lessons Tabs too difficult? Try these video lessons and learn fast
 
                [Intro]
 
e|-------------15------------------------------------------------------------------|
B|----------16----13---------------------------------------------------------------|
G|-------19----------25------------------------------------------------------------|
D|----12----------------1----------------------------------------------------------|
A|-12---------------------0--------------------------------------------------------|
E|---------------------------------------------------------------------------------|

e|-----------------------------------------------------------|
B|-----------------------------------------------------------|
G|----------------------------------8---------4-8-3---5------|
D|------------------7-3-22--------4---4----4-8-----7-9--7-8--|
A|----------4-20-13-------3-5---6--------6-------------------|
E|-12-13-15-------------------3------------------------------|            
Submit corrections


        Baby lessons Hard to play? Try these video lessons and learn fast Baby lessons
        
↑ Back to top | Tablatures and chords for acoustic guitar and electric guitar, ukulele, drums are parodies/interpretations of the original songs. You may use it for private study, scholarship, research or language learning purposes only