» » »

Judas Priest - Fever Tabs

Artists:  A B C D E F G H I J K L M N O P Q R S T U V W X Y Z # 

Fever Tabs

(ver. 3) Click to play this song!
Judas Priest
 Rating:
3.3/5 (22 votes)

 Fever lessons Tabs too difficult? Try these video lessons and learn fast
 
                Tuning:standard clean with chorus and reverb
   Intro      pick with fingers let ring
e|---------------------------------------------------------------------------|
B|---------------------------------------------------------------------------|
G|-5----5/4---4/2-------------5----------------------------------------------|
D|---7-------------3p0-----------7------repeat 2x----------------------------|
A|-0--0-----0----------3-2-3-------------------------------------------------|
E|---------------------------------------------------------------------------|

e|---------------------------------------------------------------------------|
B|---------------------------------------------------------------------------|
G|-9-------7------7h8p7-5---------5-------5/4---4/2--------------------------|
D|---10------9------------7---7------7---------------------------------------|
A|-0----0------0------------0-----0-----0-----0------------------------------|
E|---------------------------------------------------------------------------|

e|---------------------------------------------------------------------------|
B|---------------------------------------------------------------------------|
G|-----2------2-0--2--------------2------2-0--2------------------------------|
D|---2------3--------3-0--2-----2------3--------3-0--2-----------------------|
A|-0-----0------------------3-0-----0------------------3---------------------|
E|---------------------------------------------------------------------------|

e|---------------------------------------------------------------------------|
B|---------------------------------------------------------------------------|
G|-----2------2-0--2--------------2------2-0--2----------2-------------------|
D|---2------3--------3-0--2-----2------3--------3-0--2---2-------------------|
A|-0-----0------------------3-0-----0------------------3-0-------------------|
E|---------------------------------------------------------------------------|

e|---------------------------------------------------------------------------|
B|-6-----8---------------6---------------------------------------------------|
G|-5-----7---9---2-2-----5----7----------------------------------------------|
D|-3-----5---9---2-2-----3----7---2------------------------------------------|
A|-----------7---0-0----------5---2------------------------------------------|
E|--------------------------------0------------------------------------------|

e|---------------------------------------------------------------------------|
B|---------------------------------------------------------------------------|
G|----5------7-----7------9-------2-------2-------2-------2------------------|
D|---5------7-----7------9------2---2---2---2---2---2---2--------------------|
A|-3-----5-----5-----7--------0-------0-------0-------0----------------------|
E|---------------------------------------------------------------------------|
     pick with pinch harmonics dist
e|---------------------------------------------------------------------------|
B|---------------------------------------------------------------------------|
G|---5------7-----7---9------------------------------------------------------|
D|--5------7-----7----9------------------------------------------------------|
A|-3-----5-----5------7------------------------------------------------------|
E|---------------------------------------------------------------------------|
                                          mute slide
e|---pm-------pm-----------pm------------------------------------------------|
B|----------------------------------------------------8----------------------|
G|-2-x-----2------5--------------2----5-xx-7-7------9---9-7------------------|
D|-2-x-x---2------5----5/3-xx-3--2----5-xx-7-7--------------10-9-------------|
A|-0-x-x-3-0--x-x-3/2--5/3-xx-3--3p0--3-xx-5-5-------------------------------|
E|---------------------3/1-xx-1----------------------------------------------|
             
Submit corrections


        Fever lessons Hard to play? Try these video lessons and learn fast Fever lessons
        
↑ Back to top | Tablatures and chords for acoustic guitar and electric guitar, ukulele, drums are parodies/interpretations of the original songs. You may use it for private study, scholarship, research or language learning purposes only