» » »

Judas Priest - Exciter Bass

Artists:  A B C D E F G H I J K L M N O P Q R S T U V W X Y Z # 

Exciter Bass

(ver. 1) Click to play this song!
Judas Priest
 Rating:
4/5 (4 votes)

 Exciter lessons Tabs too difficult? Try these video lessons and learn fast
 
                Judas Priest - Exciter (Stained Class)


Time signature: 4/4
Tuning: Standard tuning (EADG)


Rest during drum and guitar intro

Intro:
G|-----------------|
D|-7---------------|
A|-5---------------|
E|-----------------|


Verse:
G||---------------------|-------------------|---------------------|-------------------|| Repeat X 2
D||---------------------|---------------3---|---------------------|-------------3-----||
A||---------------------|-------------3-----|---------------------|---------------3---||
E||-3333-3333-3333-3333-|-3333-3333-1-----1-|-3333-3333-3333-1122-|-3333-3333-1-------||


Chorus:
G|---------------------|-------------------|---------------------|-------------------|
D|---------------------|-------------------|---------------------|-------------------|
A|---------------------|--------------3-5--|---------------------|----33-53----------|
E|-5555-5555-5555-5555-|-5555-5555-5-5-----|-5555-5555-5555-5555-|-55-------5--------|

G|---------------------|-------------------|---------------------|-------------------|
D|---------------------|-------------------|---------------------|-------------------|
A|---------------------|--------------3-5--|---------------------|-5-4-3-------------|
E|-5555-5555-5555-5555-|-5555-5555-5-5-----|-5555-5555-5555-5555-|--------5-4--------|


Verse:
G||---------------------|-------------------|---------------------|-------------------|| Repeat X 2
D||---------------------|---------------3---|---------------------|-------------3-----||
A||---------------------|-------------3-----|---------------------|---------------3---||
E||-3333-3333-3333-3333-|-3333-3333-1-----1-|-3333-3333-3333-1122-|-3333-3333-1-------||


Chorus:
G|---------------------|-------------------|---------------------|-------------------|
D|---------------------|-------------------|---------------------|-------------------|
A|---------------------|--------------3-5--|---------------------|----33-53----------|
E|-5555-5555-5555-5555-|-5555-5555-5-5-----|-5555-5555-5555-5555-|-55-------5--------|

G|---------------------|-------------------|---------------------|-------------------|
D|---------------------|-------------------|---------------------|-------------------|
A|---------------------|--------------3-5--|-----------5----5----|-7-----------------|
E|-5555-5555-5555-5555-|-5555-5555-5-5-----|-5555-5555-----------|-------------------|


Guitar solo:
G|-----------------|
D|-----------------|
A|-----------------|
E|-----------2-----|

G||---------------------|| Repeat X 14
D||---------------------||
A||---------------------||
E||-7777-7777-7777-5566-||

G|-----------------|
D|-----------------|
A|--7-7--9-9-------|
E|-----------------|


G||------------5--|----------5----|| Repeat X 4
D||---7-7-7--57---|---7-7-7---75--||
A||---------------|---------------||
E||-5-------------|-5-------------||

G|---------------|---------------|
D|---7-7-7-7-7---|---7-7-7-7-7---|
A|---------------|---------------|
E|-5-------------|-5-------------|


G|-9-------|-7-------|-5-------|---------|---------|---------|
D|-7---9---|-5---7---|-3---5---|-8---5---|-7-------|-7-------|
A|-----7---|-----5---|-----3---|-6---3---|-5-------|-5-------|
E|---------|---------|---------|---------|---------|---------|

G|---------|---------|---------|---------|---------|
D|---------|---------|---------|---------|-7-------|
A|---------|---------|---------|---------|-5-------|
E|-3-------|---------|---------|---------|---------|


Verse:
G||---------------------|-------------------|---------------------|-------------------|| Repeat X 2
D||---------------------|---------------3---|---------------------|-------------3-----||
A||---------------------|-------------3-----|---------------------|---------------3---||
E||-3333-3333-3333-3333-|-3333-3333-1-----1-|-3333-3333-3333-1122-|-3333-3333-1-------||


Chorus:
G|---------------------|-------------------|---------------------|-------------------|
D|---------------------|-------------------|---------------------|-------------------|
A|---------------------|--------------3-5--|---------------------|----33-53----------|
E|-5555-5555-5555-5555-|-5555-5555-5-5-----|-5555-5555-5555-5555-|-55-------5--------|

G|---------------------|-------------------|---------------------|-------------------|
D|---------------------|-------------------|---------------------|-------------------|
A|---------------------|--------------3-5--|---------------------|-5-4-3-------------|
E|-5555-5555-5555-5555-|-5555-5555-5-5-----|-5555-5555-5555-5555-|--------5-4--------|


Verse:
G||---------------------|-------------------|---------------------|-------------------|| Repeat X 2
D||---------------------|---------------3---|---------------------|-------------3-----||
A||---------------------|-------------3-----|---------------------|---------------3---||
E||-3333-3333-3333-3333-|-3333-3333-1-----1-|-3333-3333-3333-1122-|-3333-3333-1-------||


Chorus:
G|---------------------|-------------------|---------------------|-------------------|
D|---------------------|-------------------|---------------------|-------------------|
A|---------------------|--------------3-5--|---------------------|----33-53----------|
E|-5555-5555-5555-5555-|-5555-5555-5-5-----|-5555-5555-5555-5555-|-55-------5--------|

G|---------------------|-------------------|---------------------|-------------------|
D|---------------------|-------------------|---------------------|-------------------|
A|---------------------|--------------3-5--|-----------5----5----|-7-----------------|
E|-5555-5555-5555-5555-|-5555-5555-5-5-----|-5555-5555-----------|-------------------|


Guitar solo:
G|-----------------|
D|-----------------|
A|-----------------|
E|-----------2-----|

G||---------------------|| Repeat X 6
D||---------------------||
A||---------------------||
E||-3333-3333-3333-3333-||

G|---------------------|---------------------|---------------------|---------------------|
D|---------------------|---------------------|---------------------|---------------------|
A|-3333-3333-3333-3333-|---------------------|---------------------|-6666-6666-6666-6666-|
E|---------------------|-4444-4444-4444-4444-|-6666-6666-6666-6666-|---------------------|

G|---------------------|---------------------|---------------------|---------------------|
D|-6666-6666-6666-6666-|-3333-3333-3333-3333-|-5555-5555-5555-5555-|---------------------|
A|---------------------|---------------------|---------------------|---------------------|
E|---------------------|---------------------|---------------------|-3333-3333-3333-3333-|

G|---------------------|---------------------|---------------------|---------------------|
D|---------------------|---------------------|---------------------|---------------------|
A|-3333-3333-3333-3333-|---------------------|---------------------|-6666-6666-6666-6666-|
E|---------------------|-4444-4444-4444-4444-|-6666-6666-6666-6666-|---------------------|

G|---------------------|---------------------|-5----3--------------|---------------------|
D|-6666-6666-6666-6666-|-3333-3333-3333-3333-|-----------6----3----|---------------------|
A|---------------------|---------------------|---------------------|-5-------------------|
E|---------------------|---------------------|---------------------|---------------------|


G||------------5--|----------5----|| Repeat X 4
D||---7-7-7--57---|---7-7-7---75--||
A||---------------|---------------||
E||-5-------------|-5-------------||

G|---------------|---------------|
D|---7-7-7-7-7---|---7-7-7-7-7---|
A|---------------|---------------|
E|-5-------------|-5-------------|


G|-9-------|-7-------|-5-------|---------|---------|---------|
D|-7---9---|-5---7---|-3---5---|-8---5---|-7-------|-7-------|
A|-----7---|-----5---|-----3---|-6---3---|-5-------|-5-------|
E|---------|---------|---------|---------|---------|---------|


Verse:
G||---------------------|-------------------|---------------------|-------------------|| Repeat X 2
D||---------------------|---------------3---|---------------------|-------------3-----||
A||---------------------|-------------3-----|---------------------|---------------3---||
E||-3333-3333-3333-3333-|-3333-3333-1-----1-|-3333-3333-3333-1122-|-3333-3333-1-------||


Outro:
G||---------------------|---------------------|| Repeat X 4
D||---------------------|---------------------||
A||---------------------|---------------------||
E||-3333-3333-3333-3333-|-3333-3333-3333-1122-||


G|---------------------|---------------------|---------------------------------------------------|
D|---------------------|---------------------|---------------------------------------------------|
A|---------------------|---------------------|---------------------------------------------------|
E|-3333-3333-3333-3333-|-3333-3333-3333-1122-|-3--1-2-3--1-2-3--1-2-3--1-2-3--1-2-3------------3-|
            
Submit corrections


        Exciter lessons Hard to play? Try these video lessons and learn fast Exciter lessons
        
↑ Back to top | Tablatures and chords for acoustic guitar and electric guitar, ukulele, drums are parodies/interpretations of the original songs. You may use it for private study, scholarship, research or language learning purposes only