» » »

Judas Priest - Deceiver Tabs

Artists:  A B C D E F G H I J K L M N O P Q R S T U V W X Y Z # 

Deceiver Tabs

(ver. 2) Click to play this song!
Judas Priest
 Rating:
4.3/5 (27 votes)

 Deceiver lessons Tabs too difficult? Try these video lessons and learn fast
 
                
e|------------------------------------|-----------------------------------------------|
B|------------------------------------|-----------------------------------------------|
G|-2b4------2b4----r2p0-2b4-----2---0-|-14b16------14b16----r14-12-14b17------14s0----|
D|------------------------------------|-----------------------------------------------|
A|------------------------------------|-----------------------------------------------|
E|------------------------------------|-----------------------------------------------|

e|-----------------------------|-----------------------------|
B|-----------------------------|-----------------------------|
G|-10p7p0-10p7p0-10p7p0-10p7p0-|-10p7p0-10p7p0-10p7p0-10p7p0-|
D|-----------------------------|-----------------------------|
A|-----------------------------|-----------------------------|
E|-----------------------------|-----------------------------|

e|---------------------------12-----|--------12-------------12-----|
B|------------------------12--------|-----12-------------12-----12-|
G|-14b16---14b16---14b16---------14-|-b16----------14b16-----------|
D|----------------------------------|------------------------------|
A|----------------------------------|------------------------------|
E|----------------------------------|------------------------------|

e|--------------------15--------|-------15-------------15-----------|
B|-15b17------15b17------15--15-|-b17------15--15b17------17r15--12-|
G|------------------------------|-----------------------------------|
D|------------------------------|-----------------------------------|
A|------------------------------|-----------------------------------|
E|------------------------------|-----------------------------------|

e|-----------------------------------|----------------------------------|
B|-15p12-----------------------------|-------15-------------15----------|
G|-------14-14p12----14p12----12--14-|-b16------14--14b16------16r14--0-|
D|----------------14-------14--------|----------------------------------|
A|-----------------------------------|----------------------------------|
E|-----------------------------------|----------------------------------|

e|--------------------------|---------------------|
B|-10p8p0-------------------|---------------------|
G|--------9p7p0-------------|---------------------|
D|--------------9p7p0-9p7p0-|-5---------5---------|
A|--------------------------|----7-5--7----7-5--7-|
E|--------------------------|---------------------|

e|----------------------|------------------------|
B|----------------------|------------------------|
G|----------------------|------------------------|
D|-5p0---5p0---5p0---5--|--/12~~~~~~~~~~~~~~~~~~-| (hold note for a few bars, try to achieve feedback)
A|-----7-----7-----7----|------------------------|
E|----------------------|------------------------|
            
Submit corrections


        Deceiver lessons Hard to play? Try these video lessons and learn fast Deceiver lessons
        
↑ Back to top | Tablatures and chords for acoustic guitar and electric guitar, ukulele, drums are parodies/interpretations of the original songs. You may use it for private study, scholarship, research or language learning purposes only