» » »

Judas Priest - Battle Hymn Tabs

Artists:  A B C D E F G H I J K L M N O P Q R S T U V W X Y Z # 

Battle Hymn Tabs

(ver. 1) Click to play this song!
Judas Priest
 Rating:
4.6/5 (11 votes)

 Battle Hymn lessons Tabs too difficult? Try these video lessons and learn fast
 
                Band:  Judas Priest

Copyright (c)  (Sony) (1990)
Version 1.0 - 17/02/05



.  - palm mute           /  - slide up to
\  - slide down to       ~  - vibrato
h  - hammer on           b  - Bend
p  - pull off            Suffixes for bend
t  - tap                 f  - full bend    h - half bend
ph - pinched harmonic    q  - quarter bend t - tap bend
*  - see comment         ^  - Hold bend    r release bend
x  - Stuccatto           ~  - vibrato bend
,  - slight palm mute    () - ghost note, sustained note
"  - tremolo note        <> - Trill

Tunning E A D G B E


 Guitar 1
E[--------------------------------------|
B[--------------------------------------|
G[-4--------------(4)-------------------|
D[-4--------------(4)-------------------|
A[-2--------------(2)-------------------|
E[--------------------------------------|
 [Guitar 2
E[--------------------------------------|
B[--------------------------------------|
G[--------------------------------------|
D[----------4-----------------4---------|
A[-2--4--5-----5--4--2--4--5-----5--4---|
E[--------------------------------------|

 Guitar 1
E[--------------------------------------|
B[--------------------------------------|
G[-(4)--------------(4)-----------------|
D[-(4)--------------(4)-----------------|
A[-(2)--------------(2)-----------------|
E[--------------------------------------|
 [Guitar 2
E[--------------------------------------|
B[--------------------------------------|
G[--------------------------------------|
D[----------5-----------------5---------|
A[-2--4--5-----5--4--2--4--5-----5--4---|
E[--------------------------------------|

 Guitar 1
E[--------------------------------------|
B[--------------------------------------|
G[-6--------------(6)-------------------|
D[-6--------------(6)-------------------|
A[-4--------------(4)-------------------|
E[--------------------------------------|
 [Guitar 2
E[--------------------------------------|
B[--------------------------------------|
G[--------------------------------------|
D[----------5-----------------5---------|
A[-4--5--7-----7--5--4--5--7-----7--5---|
E[--------------------------------------|

 Guitar 1
E[--------------------------------------|
B[--------------------------------------|
G[-7--------------(7)-------------------|
D[-7--------------(7)-------------------|
A[-5--------------(5)-------------------|
E[--------------------------------------|
 [Guitar 2
E[--------------------------------------|
B[--------------------------------------|
G[--------------------------------------|
D[-------4--5--7--9-------4--5--7--9----|
A[-5--7-------------5--7----------------|
E[--------------------------------------|

 Guitar 1
E[--------------------------------------|
B[--------------------------------------|
G[--------------------------------------|
D[-5--------------(5)-------------------|
A[-5--------------(5)-------------------|
E[-3--------------(3)-------------------|
 [Guitar 2
E[--------------------------------------|
B[--------------------------------------|
G[--------------------------------------|
D[-------4--5--7--9--7--5--4--5--4------|
A[-5--7-----------------------------7---|
E[--------------------------------------|

 Guitar 1
E[--------------------------------------|
B[--------------------------------------|
G[--------------------------------------|
D[-9--------------(9)-------------------|
A[-7--------------(7)-------------------|
E[-0--------------(0)-------------------|
 [Guitar 2
E[--------------------------------------|
B[--------------------------------------|
G[--------------------------------------|
D[-------4--5--7--8--7--5--4--5--4--7---|
A[-5--7---------------------------------|
E[--------------------------------------|

 Guitar 1
E[--------------------------------------|
B[--------------------------------------|
G[-6--------------(6)-------------------|
D[-6--------------(6)-------------------|
A[-4--------------(4)-------------------|
E[--------------------------------------|
 [Guitar 2
E[--------------------------------------|
B[--------------------------------------|
G[--------------------------------------|
D[----------4-----------------4---------|
A[-4--5--7-----7--5--4--5--7-----7--5---|
E[--------------------------------------|

 Guitar 1
E[-------------------------------------------------------------------|
B[-------------------------------------------------------------------|
G[-------------------------------------------------------------------|
D[-4--------------(4)------------------------------3-------(3)-------|
A[-4--------------(4)------------------------------1-------(1)-------|
E[-2--------------(2)------------------------------------------------|
 [
 [Guitar 2                        ~~~~~~~~~~~~~~~   ~~~~~~~~~~~~
E[-------------------------------------------------------------------|
B[-------------------------------------------------------------------|
G[-------------------------------------------------------------------|
D[-------------------------------------------------------------------|
A[-4--5--7--7--7--5--4--5--7--4--5----(5)---------\1-------(1)-------|
E[-------------------------------------------------------------------|




END
            
Submit corrections


        Battle Hymn lessons Hard to play? Try these video lessons and learn fast Battle Hymn lessons
        
↑ Back to top | Tablatures and chords for acoustic guitar and electric guitar, ukulele, drums are parodies/interpretations of the original songs. You may use it for private study, scholarship, research or language learning purposes only