» » »

Judas Priest - Angel Tabs

Artists:  A B C D E F G H I J K L M N O P Q R S T U V W X Y Z # 

Angel Tabs

(ver. 2) Click to play this song!
Judas Priest
 Rating:
4/5 (9 votes)

 Angel lessons Tabs too difficult? Try these video lessons and learn fast
 
                (Intro)
-------------------------------------------------------------------------------------
                             Angel – Judas Priest
------------------------------------------------------------------------------------

Tuning: Standard

| /  slide up
| \  slide down
| h  hammer-on
| p  pull-off
| ~  vibrato
| +  harmonic
| x  Mute note

e|------------------------------------|-------------------------------------|
B|-----2h3-3--2-3---------------------|-------------------------------------|
G|---------4-----------0--------2-----|-Play this twice---------------------|
D|---4---------------0---0----2---2---|-------------------------------------|
A|-2------------------------0---------|-------------------------------------|
E|-----------------3------------------|-------------------------------------|

Then

e|-9h10-----9h10-12-10-9-----------------------------------------|----------|
B|------12---------------12-10------12-12------------------------|----------|
G|-----------------------------9-11-------9-11-12-11-9-7-6-------|----------|
D|---------------------------------------------------------9p7-9-|----------|
A|---------------------------------------------------------------|----------|
E|---------------------------------------------------------------|----------|

Back to top

Enjoy!!
===============================================================================
            
Submit corrections


        Angel lessons Hard to play? Try these video lessons and learn fast Angel lessons
        
↑ Back to top | Tablatures and chords for acoustic guitar and electric guitar, ukulele, drums are parodies/interpretations of the original songs. You may use it for private study, scholarship, research or language learning purposes only