» » »

Jubin Nautiyal - Zindagi Kuch To Bata Chords

Artists:  A B C D E F G H I J K L M N O P Q R S T U V W X Y Z # 

Zindagi Kuch To Bata Chords

(ver. 1) Click to play this song!
Jubin Nautiyal
 Rating:
4.1/5 (31 vote)

 Zindagi Kuch To Bata lessons Tabs too difficult? Try these video lessons and learn fast
 
                [Intro]
Fm Db Ab Fm Bbm C F

e|------------------------------------------------------------------------------|
B|------------------------------------------------------------------------------|
G|-2-2-0-2---2-2-0-2---2-2-0-2---2-2-0-2---3-3-2-3--3-3-2-3---3-3-2-3---3-3-2-3-|
D|-3-3-3-3---3-3-3-3---3-3-3-3---3-3-3-3---3-3-3-3--3-3-3-3---3-3-3-3---3-3-3-3-|
A|-3-3-3-3---3-3-3-3---3-3-3-3---3-3-3-3---1-1-1-1--1-1-1-1---1-1-1-1---1-1-1-1-|
E|------------------------------------------------------------------------------|

[Verse 1]
   F
Ek Din Mohabbat Odh Kar
   Bb
Ek Din Gali Ke Mod Par
F
Teri Hatheli Par Likhun
Bb
Mera Naam Tere Naam Par
     Db          D#
Phir Tu Taqalluf Chhod Kar
     Ab           Db
Phir Tu Jhuka Kar Ke Nazar
    Bbm          C
Rakhna Mere Kaandhe Pe Sar
    F
Zindagi…

[Chorus]
           Bb     C         F
Kuch To Bataaaa..aaa.. Zindagi
        C       F
Apna Pataa Zindagi..
           Bb     C         F
Kuch To Bataaaa..aaa.. Zindagi
        C       F
Apna Pataa Zindagi..

e|---------5---------5---------6---------6---------5---------5---------6---------6-|
B|---------------------------------------------------------------------------------|
G|-2-2-0-2---2-2-0-2---3-3-2-3---3-3-2-3---2-2-2-2---3-3-2-3---3-3-2-3---3-3-2-3---|
D|-3-3-3-3---3-3-3-3---3-3-3-3---3-3-3-3---3-3-3-3---3-3-3-3---3-3-3-3---3-3-3-3---|
A|-3-3-3-3---3-3-3-3---1-1-1-1---1-1-1-1---3-3-3-3---3-3-3-3---1-1-1-1---1-1-1-1---|
E|---------------------------------------------------------------------------------|

[Verse 2]
   F
Taaron Bhari Ek Raat Mein
      Bb
Tere Khat Padhenge Saath Mein
  F
Kora Jo Panna Reh Gaya
    Bb
Ek Kaanpte Se Haath Mein
  Db           D#
Thodi Shiqaayat Karna Tu
   Ab          Db
Thodi Shiqayat Main Karun
  Bbm         C
Naraaz Bas Na Hona Tu,
     F
Zindagi…

[Chorus]
           Bb     C         F
Kuch To Bataaaa..aaa.. Zindagi
        C       F
Apna Pataa Zindagi..
           Bb     C         F
Kuch To Bataaaa..aaa.. Zindagi
        C       F
Apna Pataa Zindagi..

[Outro]
                 F
Tu Hai To Main Hoon..
                 F
Tu Hai To Hai Toh Nahi..
             Bb
Tu Hai To Khuda
             Bb
Tu Hai To Khudi
             F
Tu Hai Toh Falak
             F
Tu Hai Toh Zameen
                 F
Tu Hai To Main Hoon..
                 F
Tu Hai To Hai Toh Nahi..
             Bb
Tu Hai To Khuda
             Bb
Tu Hai To Khudi
             F
Tu Hai Toh Falak
             F
Tu Hai Toh Zameen

       Bb         F
Ohohooohohooh...hoho...
    Bb           C          F
hohohoohohohohohohoooooo...hooo            
Submit corrections


        Zindagi Kuch To Bata lessons Hard to play? Try these video lessons and learn fast Zindagi Kuch To Bata lessons
        
↑ Back to top | Tablatures and chords for acoustic guitar and electric guitar, ukulele, drums are parodies/interpretations of the original songs. You may use it for private study, scholarship, research or language learning purposes only