» » »

Josie And The Pussycats - Pretend To Be Nice Bass

Artists:  A B C D E F G H I J K L M N O P Q R S T U V W X Y Z # 

Pretend To Be Nice Bass

(ver. 2) Click to play this song!
Josie And The Pussycats
 Rating:
4/5 (4 votes)

 Pretend To Be Nice lessons Tabs too difficult? Try these video lessons and learn fast
 
                Pretend to be nice – Josie & The Pussy Cats

(You'll be able to figure the structure out for yourselves)

Verse
G|----------------------------------|
D|----------------------------------|
A|--3-3-3-3-3-3-3-3-----------------|
E|------------------5-5-5-5-5-5-5-5-|

G|-----------------------------|
D|-----------------------------|
A|-----------------------------|
E|--0-0-0-0-0-0-0-0-3p-1p-3p-1p|

Pre-Chorus
G|-----------------------------------|--------------------|
D|-----------------------------------|--------------------|
A|--3-3-3-3--------------------------|--------------------|
E|----------5-5-5-5-0-0-0-0-1-1-1-1--|--3-3-3-3-3-3-3-3-3-|

Chorus
G|-------------|---------------------|
D|----------3--|---------------------|
A|--3----------|---------------------|
E|------3------|---3-3-3-3-3-3-3-3---|

Post Chorus
G|----------------------------------------------|-----------------|
D|----------------------------------------------|-----------------|
A|--3--3--3--3----------------------------------|-3-3-3-3-3-3-3-3-|
E|-------------3--3--3--3-0--0--0--0--1--1--1--1|-----------------|

Guitar Solo
G|----------------------------------|
D|----------------------------------|
A|--5-5-5-5-5-5-5-5-----------------|
E|------------------7-7-7-7-7-7-7-7-|

G|-----------------------------|
D|-----------------------------|
A|-----------------------------|
E|--2-2-2-2-2-2-2-2-5p-3p-5p-3p|

Pre-Chorus
G|-----------------------------------|--------------------|
D|-----------------------------------|--------------------|
A|--5-5-5-5--------------------------|--------------------|
E|----------7-7-7-7-2-2-2-2-3-3-3-3--|--5-5-5-5-5-5-5-5-5-|

Chorus
G|-------------|---------------------|
D|----------5--|---------------------|
A|--5----------|---------------------|
E|------5------|---5-5-5-5-5-5-5-5---|

Post Chorus
G|----------------------------------------------|-----------------|
D|----------------------------------------------|-----------------|
A|--5--5--5--5----------------------------------|-5-5-5-5-5-5-5-5-|
E|-------------5--5--5--5-2--2--2--2--3--3--3--3|-----------------|
            
Submit corrections


        Pretend To Be Nice lessons Hard to play? Try these video lessons and learn fast Pretend To Be Nice lessons
        
↑ Back to top | Tablatures and chords for acoustic guitar and electric guitar, ukulele, drums are parodies/interpretations of the original songs. You may use it for private study, scholarship, research or language learning purposes only