» » »

Joshua Radin - No Envy No Fear Tabs

Artists:  A B C D E F G H I J K L M N O P Q R S T U V W X Y Z # 

No Envy No Fear Tabs

(ver. 1) Click to play this song!
Joshua Radin
 Rating:
4/5 (5 votes)

 No Envy No Fear lessons Tabs too difficult? Try these video lessons and learn fast
 
                Joshua Radin - No Envy, No fear

Album - Simple Times

Dublin, Ireland

Brilliant song from an excellent artist, took me a while to figure it out but i 
eventually got it!!

I've only included a part of the mandolin bit at the end of the chorus which i've 

Strumming pattern isn't hard to figure out.

Tuned down a half step


      G              E         C                G              G* (no idea what its called)

|-----3------|-|-----3---|-|---3--------|-|-----3------|-|--3------3---|-|
|-----3------|-|-----3---|-|---3--------|-|-----3------|-|--0h1----3---|-|
|-----0------|-|-----0---|-|---0--------|-|-----0------|-|--0------0---|-|
|-----0------|-|-----2---|-|---2-0-2----|-|-----0------|-|--0------0---|-|
|-----2------|-|-----2---|-|---3--------|-|-----2------|-|--x------x---|-|
|-----3------|-|-----x---|-|---x--------|-|-----3------|-|--x------x---|-|


(Verse 1)

G         E        C       G    G*  G    E    C             G   G*
 some are reaching few are there,    wandering from a heros chair,
        
G         E      C         G   G*  G     E       C               G
 some are scared to fly so high,    well this is how we have to try


(Chorus)

E                G        E             G
have no envy and no fear, have no envy, no fear

(Mandolin part at end of chorus)

|------------------5/7---8---7----5--------------------------------------|-|
|------10---12------------------------8----5/8------10-----12-------12---|-|
|-------------------------------------------------------------------12---|-|
|-------------------------------------------------------------------12---|-|
|------------------------------------------------------------------------|-|
|------------------------------------------------------------------------|-|
          
(Verse 2)

G        E       C      G  G*  G            E      C       G  G*
 brother brother we all see,    your hiding out so painfully,

G    E        C           G   G*  G         E         C      G
 see yourself come out to play,    a lovers rain will wash away

(Chorus)

E            G          E               G
you envy and you fear, so have no envy, no fear

(2nd Mandolin part at end of 2nd chorus)

|-------------------9/10----10--7--5-------------------------------------|-|
|------10----12------------------------8----5/8----10-------12-----------|-|
|-----------------------------------------------------------12-----------|-|
|-----------------------------------------------------------12-----------|-|
|------------------------------------------------------------------------|-|
|------------------------------------------------------------------------|-|

(Same Chords For Last 2 Verses and Chorus)

(Verse 3)
              
when your sister turns to leave, only when shes most in need, 

take away the cause of pain, by showing her were all the same.

(Chorus)

have no envy and no fear, have no envy and no fear

(Mandolin Part at end of chorus 3)

|-------------------9/10----10--7--5-------------------------------------|-|
|------10----12------------------------8----5/8----10-------12-----------|-|
|-----------------------------------------------------------12-----------|-|
|-----------------------------------------------------------12-----------|-|
|------------------------------------------------------------------------|-|
|------------------------------------------------------------------------|-|

|--------------------------------10----7----5----------------------------|-|
|------5-----7----8-----10/12---------------------8----5/8-----10----8---|-|
|------------------------------------------------------------------------|-|
|------------------------------------------------------------------------|-|
|------------------------------------------------------------------------|-|
|------------------------------------------------------------------------|-|
 
(Verse 4)

and every day we try to find, we search our hearts and our minds, the place 
          
we used to call our home, cant be found when were alone

(Chorus)

so have no envy, no fear, have no envy and no fear

(Last Mandolin Part)

|-------------------9/10----10--7--5-------------------------------------|-|
|------10----12------------------------8----5/8----10-------12-----------|-|
|-----------------------------------------------------------12-----------|-|
|-----------------------------------------------------------12-----------|-|
|------------------------------------------------------------------------|-|
|------------------------------------------------------------------------|-|

|------15-------10----7---5-----------------5----------------------------|-|
|---------15-------------------8----5h8----------------------------------|-|
|--------------------------------------------------0---------------------|-|
|--------------------------------------------------0---------------------|-|
|--------------------------------------------------2---------------------|-|
|--------------------------------------------------3---------------------|-|

Enjoy :) Please Rate!! Thanks
            
Submit corrections


        No Envy No Fear lessons Hard to play? Try these video lessons and learn fast No Envy No Fear lessons
        
↑ Back to top | Tablatures and chords for acoustic guitar and electric guitar, ukulele, drums are parodies/interpretations of the original songs. You may use it for private study, scholarship, research or language learning purposes only