» » »

Joshua Radin - Everythingll Be Alright Tabs

Artists:  A B C D E F G H I J K L M N O P Q R S T U V W X Y Z # 

Everythingll Be Alright Tabs

(ver. 2) Click to play this song!
Joshua Radin
 Rating:
4.4/5 (7 votes)

 Everythingll Be Alright lessons Tabs too difficult? Try these video lessons and learn fast
 
                Everything'll Be Alright (Will's Lullaby)

Tuning: Regular
Capo: 4


[Intro]

Guitar 1:

     Cadd9          G         D        Em7
E-------------------------------------------|
B---------------3---3-----3---3-----3---3---|
G-----0---------0---0-----0h2-2-----0---0---|
D---0-0h1-------0---0--0------------2---2---|
A-3-------0---------------------------------|
E-----------3-3-------------------0---------|

      Cadd9       G         D        G
E------------------------------------------|
B-----3---3-----3---3-----3---3----3---3---|
G-----0---0-----0---0-----0h2-2----0---0---|
D-0---0h2-2-----0---0---0----------0---0---|
A---3--------------------------------------|
E-------------3-------------------3--------|


[Verse 1]

    Cadd9         G         D           Em7
E------------------------------------------|
B------3---3----3---3-----3---3-----3---3--|
G------0---0----0---0-----0h2-2-----0---0--|
D-0----0h2-2----0---0---0-----------2---2--|
A---3--------------------------------------|
E--------------3------------------0--------|
          Way  down,  in New York town

    Cadd9         G         D        Em7
E------------------------------------------|
B------3---3----3---3-----3---3-----3---3--|
G------0---0----0---0-----0h2-2-----0---0--|
D-0----0h2-2----0---0---0-----------2---2--|
A---3--------------------------------------|
E--------------3------------------0--------|
      Thinking about the way she loved me

    Cadd9         G         D        Em7
E------------------------------------------|
B------3---3----3---3-----3---3-----3---3--|
G------0---0----0---0-----0h2-2-----0---0--|
D-0----0h2-2----0---0---0-----------2---2--|
A---3--------------------------------------|
E--------------3------------------0--------|
There's a hole in my pocket that's about her size

      Cadd9       G         D        G
E------------------------------------------|
B-----3---3-----3---3-----3---3----3---3---|
G-----0---0-----0---0-----0h2-2----0---0---|
D-0---0h2-2-----0---0---0----------0---0---|
A---3--------------------------------------|
E-------------3-------------------3--------|
  But I think everything is gonna be alright

      Cadd9       G         D        G
E------------------------------------------|
B-----3---3-----3---3-----3---3----3---3---|
G-----0---0-----0---0-----0h2-2----0---0---|
D-0---0h2-2-----0---0---0----------0---0---|
A---3--------------------------------------|
E-------------3-------------------3--------|
   Yes I hope everything is gonna be alright


[Interlude]

Guitar 1:

    Cadd9         G         D        Em7
E------------------------------------------|
B------3---3----3---3-----3---3-----3---3--|
G------0---0----0---0-----0h2-2-----0---0--|
D-0----0h2-2----0---0---0-----------2---2--|
A---3--------------------------------------|
E--------------3------------------0--------|

      Cadd9       G         D        G
E------------------------------------------|
B-----3---3-----3---3-----3---3----3---3---|
G-----0---0-----0---0-----0h2-2----0---0---|
D-0---0h2-2-----0---0---0----------0---0---|
A---3--------------------------------------|
E-------------3-------------------3--------|

Guitar 2:

    Cadd9        G          D        Em7
E-------3----------3---------2--------3-----|
B----3-----3----3-----3---3-----3---3---3---|
G-5-----------4---------2---------4---------|   2x
D-------------------------------------------|
A-------------------------------------------|
E-------------------------------------------|

*All the verses follow the same pattern, so just play the above verse.


[Verse 2]

The smiling face, straight in LA
The gifts are found at the bar
But I wish my car could drive to her tonight
Then I'd know everything is gonna be alright
Yes then I'd know it'll be alright

[Interlude]

[Verse 3]

The rain in New Orleans, forgot to end
But the mouths of the people are dry
And we watch and wait and do nothing but sigh
And hope everything is gonna turn alright
But I don't know if it'll be alright

[Interlude]

[Verse 4]

But I look at you, warm in your dream
While your mobile dances above
And I think to myself it's a beautiful night
And I know everything is gonna be alright
Yes now I know it'll be alright

I know this tab is mostly accurate, but there may be some errors. Enjoy!
            
Submit corrections


        Everythingll Be Alright lessons Hard to play? Try these video lessons and learn fast Everythingll Be Alright lessons
        
↑ Back to top | Tablatures and chords for acoustic guitar and electric guitar, ukulele, drums are parodies/interpretations of the original songs. You may use it for private study, scholarship, research or language learning purposes only