Home » J » Jose Gonzalez »

Jose Gonzalez - Love Will Tear Us Apart Tabs

Artists:  A B C D E F G H I J K L M N O P Q R S T U V W X Y Z # 

Love Will Tear Us Apart Tabs

(ver. 2) Click to play this song!
Jose Gonzalez
 Rating:
4.6/5 (10 votes)
                Tuning: D A D F# A E
Capo 2nd fret

i dirty thieved this tab off someone else, reposting it because i dont think its quite 
and im not good enough to fix it

Intro
|---0---------------|
|---0---------------|
|---10--------------|
|---9---------------|
|---0---------------|
|---9---------------|

|---0----0----0----0--------------------|
|---0----0----0----0--------------------|
|---0----8----0----0--------------------|
|---0----0----4----7--------------------|
|---7----9----2----7--------------------|
|---9----0----x----7--------------------|

Verse
|---0---0---0---0---|---0---0---0---0---|---0---0---0---0---|
|---0---0---0---0---|---0---0---0---0---|---0---0---0---0---|
|---0---0---0---0---|---0---0---0---0---|---0---0---0---0---|
|---9---7---4---7---|---9---7---4---2---|---9---7---4---7---|
|---7---5---2---5---|---7---5---2---4---|---7---5---2---5---|
|---x---x---x---x---|---x---x---x---x---|---x---x---x---x---|

Chorus
|---0----0----0----0--------------------|
|---0----0----0----0--------------------|
|---0----8----0----0--------------------|
|---0----0----4----7--------------------|
|---7----9----2----7--------------------|
|---9----0----x----7--------------------|


Chorus Variation
|---0----0--0--0--------0----0----------|
|---0----0--0--0--------0----0----------|
|---0----8--8--8--------0----0----------|
|---0----0--0--0--------4----7----------|
|---7----9--10-9--7--5--2----7----------|
|---9----0--0--0--------x----7----------|
            
Submit corrections

↑ Back to top | Tablatures and chords for acoustic guitar and electric guitar, ukulele, drums are parodies/interpretations of the original songs. You may use it for private study, scholarship, research or language learning purposes only