Home » J » Jose Gonzalez »

Jose Gonzalez - Teardrop Tabs

Artists:  A B C D E F G H I J K L M N O P Q R S T U V W X Y Z # 

Teardrop Tabs

(ver. 1) Click to play this song!
Jose Gonzalez
 Rating:
4/5 (4 votes)
                
I couldn't find any tabs out there that were at all close to how this is played, so I 
this one together. Any comments or suggestions welcome.

Enjoy!

Tuning: DADABE


Intro:

|---------0-------|
|-3---------------|
|-----0-------0---| (x8)
|---0---0---0---0-|
|-----------------|
|-----------------|


Verse 1:

|-----------------|---------0-------|-----------------|---------0-------|
|-3-------3-------|-3---------------|-3-------3-------|-3---------------|
|-----0-------0---|-----0-------0---|-----0-------0---|-----0-------0---|
|---0---0---0---0-|---0---0---0---0-|---0---0---0---0-|---0---0---0---0-|
|-----------------|-----------------|-----------------|-----------------|
|-----------------|-----------------|-----------------|-----------------|

|---------0-------|---------0-------|---------0-------|---------0-------|
|-3---------------|-3---------------|-3---------------|-3---------------|
|-----0-------0---|-----0-------0---|-----0-------0---|-----0-------0---|
|---5---5---5---5-|---5---5---5---5-|---0---0---0---0-|---0---0---0---0-|
|-----------------|-----------------|-----------------|-----------------|
|-----------------|-----------------|-----------------|-----------------|

|---------0-------|---------0-------|---------0-------|---------0-------|
|-3---------------|-3---------------|-3---------------|-3---------------|
|-----0-------0---|-----0-------0---|-----0-------0---|-----0-------0---|
|---0---0---0---0-|---0---0---0---0-|---0---0---0---0-|---0---0---0---0-|
|-----------------|-----------------|-----------------|-----------------|
|-----------------|-----------------|-----------------|-----------------|

|---------0-------|---------0-------|---------0-------|---------0-------|
|-3---------------|-3---------------|-3---------------|-3---------------|
|-----0-------0---|-----0-------0---|-----0-------0---|-----0-------0---|
|---5---5---5---5-|---5---5---5---5-|---0---0---0---0-|---0---0---0---0-|
|-----------------|-----------------|-----------------|-----------------|
|-----------------|-----------------|-----------------|-----------------|

|---------0-------|---------0-------|---------0-------|---------0-------|
|-3---------------|-3---------------|-3---------------|-3---------------|
|-----0-------0---|-----0-------0---|-----0-------0---|-----0-------0---|
|---3---3---3---3-|---3---3---3---3-|---5---5---5---5-|---5---5---5---5-|
|-----------------|-----------------|-----------------|-----------------|
|-----------------|-----------------|-----------------|-----------------|

|---------0-------|---------0-------|-----------------|-----------------|
|-3---------------|-3---------------|-3-------3-------|-3-------3-------|
|-----0-------0---|-----0-------0---|-----0-------0---|-----0-------0---|
|---0---0---0---0-|---0---0---0---0-|---0---0---0---0-|---0---0---0---0-|
|-----------------|-----------------|-----------------|-----------------|
|-----------------|-----------------|-----------------|-----------------|

|-----------------|-----------------|-----------------|-----------------|
|-3-------3-------|-3-------3-------|-3-------3-------|-3-------3-------|
|-----0-------0---|-----0-------0---|-----0-------0---|-----0-------0---|
|---0-------0---0-|---0-------0---0-|---0-------0---0-|---0-------0---0-|
|-----------------|-----------------|-----------------|-----------------|
|-0-----0---------|-0-----0---------|-0-----0---------|-0-----0---------|

|-----------------|-----------------|-----------------|-----------------|
|-3-------3-------|-3-------3-------|-3-------3-------|-3-------3-------|
|-----0-------0---|-----0-------0---|-----0-------0---|-----0-------0---|
|---0-------0---0-|---0-------0---0-|---0-------0---0-|---0-------0---0-|
|-----------------|-----------------|-----------------|-0-----0---------|
|-0-----0---------|-0-----0---------|-0-----0---------|-0-----0---------|


Verse 2:

|-----------------|-----------------|-----------------|-----------------|
|-3-------3-------|-3-------3-------|-3-------3-------|-3-------3-------|
|-----0-------0---|-----0-------0---|-----0-------0---|-----0-------0---|
|---0-------0---0-|---0-------0---0-|---0-------0---0-|---0-------0---0-|
|-----------------|-----------------|-----------------|-----------------|
|-0-----0---------|-0-----0---------|-0-----0---------|-0-----0---------|

|-----------------|-----------------|-----------------|-----------------|
|-3-------3-------|-3-------3-------|-3-------3-------|-3-------3-------|
|-----0-------0---|-----0-------0---|-----0-------0---|-----0-------0---|
|---0-------0---0-|---0-------0---0-|---0-------0---0-|---0-------0---0-|
|-----------------|-----------------|-----------------|-----------------|
|-5-----5---------|-5-----5---------|-0-----0---------|-0-----0---------|

|-----------------|-----------------|-----------------|-----------------|
|-3-------3-------|-3-------3-------|-3-------3-------|-3-------3-------|
|-----0-------0---|-----0-------0---|-----0-------0---|-----0-------0---|
|---0-------0---0-|---0-------0---0-|---0-------0---0-|---0-------0---0-|
|-----------------|-----------------|-----------------|-----------------|
|-0-----0---------|-0-----0---------|-0-----0---------|-0-----0---------|

|-----------------|-----------------|-----------------|-----------------|
|-3-------3-------|-3-------3-------|-3-------3-------|-3-------3-------|
|-----0-------0---|-----0-------0---|-----0-------0---|-----0-------0---|
|---0-------0---0-|---0-------0---0-|---0-------0---0-|---0-------0---0-|
|-----------------|-----------------|-----------------|-----------------|
|-5-----5---------|-5-----5---------|-0-----0---------|-0-----0---------|

|-----------------|-----------------|-----------------|-----------------|
|-3-------3-------|-3-------3-------|-3-------3-------|-3-------3-------|
|-----0-------0---|-----0-------0---|-----0-------0---|-----0-------0---|
|---0-------0---0-|---0-------0---0-|---0-------0---0-|---0-------0---0-|
|-----------------|-----------------|-----------------|-----------------|
|-3-----3---------|-3-----3---------|-5-----5---------|-5-----5---------|

|-----------------|---------3-------|
|-3-------3-------|-3-----------3---|
|-----0-------0---|-----0-----0---0-|
|---0-------0---0-|---0-------------|
|-----------------|-----------------|
|-0-----0---------|-0-----0---------|


Interlude 1:

|-5-------5-------|-5-------5-------|-8-------8-------|-8-------8-------|
|-----3-------3---|-----3-------3---|-----5-------5---|-----5-------5---|
|---0-------0---0-|---0-------0---0-|---0-------0---0-|---0-------0---0-|
|-0-----0---------|-0-----0---------|-0-----0---------|-0-----0---------|
|-----------------|-----------------|-----------------|-----------------|
|-----------------|-----------------|-----------------|-----------------|

|-8-------8-------|-8-------8-------|-8-------8-------|-8-------8---8---|
|-----8-------8---|-----8-------8---|-----8-------8---|-----8---8---8---|
|---0-------0---0-|---0-------0---0-|---0-------0---0-|---0-------0---0-|
|-0-----0---------|-0-----0---------|-0-----0---------|-0-----0---------|
|-----------------|-----------------|-----------------|-----------------|
|-----------------|-----------------|-----------------|-----------------|


Verse 3:

|-----------------|-----------------|-----------------|-----------------|
|-3-------3-------|-3-------3-------|-3-------3-------|-3-------3-------|
|-----0-------0---|-----0-------0---|-----0-------0---|-----0-------0---|
|---0-------0---0-|---0-------0---0-|---0-------0---0-|---0-------0---0-|
|-----------------|-----------------|-----------------|-----------------|
|-0-----0---------|-0-----0---------|-0-----0---------|-0-----0---------|

|-----------------|-----------------|-----------------|-----------------|
|-3-------3-------|-3-------3-------|-3-------3-------|-3-------3---3---|
|-----0-------0---|-----0-------0---|-----0-------0---|-----0---0---0---|
|---0-------0---0-|---0-------0---0-|---0-------0---0-|---0-------0---0-|
|-----------------|-----------------|-----------------|-----------------|
|-5-----5---------|-5-----5---------|-0-----0---------|-0-----0---------|

|-----------------|-----------------|-----------------|-----------------|
|-3-------3-------|-3-------3-------|-3-------3-------|-3-------3-------|
|-----0-------0---|-----0-------0---|-----0-------0---|-----0-------0---|
|---0-------0---0-|---0-------0---0-|---0-------0---0-|---0-------0---0-|
|-----------------|-----------------|-----------------|-----------------|
|-0-----0---------|-0-----0---------|-0-----0---------|-0-----0---------|

|-----------------|-----------------|-----------------|-----------------|
|-3-------3-------|-3-------3-------|-3-------3-------|-3-------3-------|
|-----0-------0---|-----0-------0---|-----0-------0---|-----0-------0---|
|---0-------0---0-|---0-------0---0-|---0-------0---0-|---0-------0---0-|
|-----------------|-----------------|-----------------|-----------------|
|-5-----5---------|-5-----5---------|-0-----0---------|-0-----0---------|

|-----------------|-----------------|-----------------|-----------------|
|-3-------3-------|-3-------3-------|-3-------3-------|-3-------3-------|
|-----0-------0---|-----0-------0---|-----0-------0---|-----0-------0---|
|---0-------0---0-|---0-------0---0-|---0-------0---0-|---0-------0---0-|
|-----------------|-----------------|-----------------|-----------------|
|-3-----3---------|-3-----3---------|-5-----5---------|-5-----5---------|

|-----------------|-----------------|-----------------|-----------------|
|-3-------3-------|-3-------3-------|-3-------3-------|-3-------3-------|
|-----0-------0---|-----0-------0---|-----0-------0---|-----0-------0---|
|---0-------0---0-|---0-------0---0-|---0-------0---0-|---0-------0---0-|
|-----------------|-----------------|-----------------|-----------------|
|-0-----0---------|-0-----0---------|-3-----3---------|-3-----3---------|

|-----------------|-----------------|-----------------|---------3-------|
|-3-------3-------|-3-------3-------|-3-------3-------|-3-----------3---|
|-----0-------0---|-----0-------0---|-----0-------0---|-----0-----0---0-|
|---0-------0---0-|---0-------0---0-|---0-------0---0-|---0-------------|
|-----------------|-----------------|-----------------|-----------------|
|-5-----5---------|-5-----5---------|-3-----3---------|-3-----3---------|


Interlude 2:

|-5-------5-------|-5-------5-------|-8-------8-------|-8-------8-------|
|-----3-------3---|-----3-------3---|-----5-------5---|-----5-------5---|
|---0-------0---0-|---0-------0---0-|---0-------0---0-|---0-------0---0-|
|-----------------|-----------------|-----------------|-----------------|
|-----------------|-----------------|-----------------|-----------------|
|-0-----0---------|-0-----0---------|-0-----0---------|-0-----0---------|

|-8-------8-------|-8-------8-------|-10------10------|-10-----10-------|
|----10------10---|----10------10---|----10------10---|----10------10---|
|---0-------0---0-|---0-------0---0-|---0-------0---0-|---0-------0---0-|
|-----------------|-----------------|-----------------|-----------------|
|-----------------|-----------------|-----------------|-----------------|
|-0-----0---------|-0-----0---------|-0-----0---------|-0-----0---------|


Outro:

|-----------------|-----------------|-----------------|-----------------|
|-10------10------|-10-----10-------|-10------10------|-10-----10-------|
|-----0-------0---|-----0-------0---|-----0-------0---|-----0-------0---|
|---0-------0---0-|---0-------0---0-|---0-------0---0-|---0-------0---0-|
|-----------------|-----------------|-----------------|-----------------|
|-8-----8---------|-8-----8---------|-10----10--------|-10----10--------|

|-----------------|-----------------|---------10------|-10-----10-------|
|-10------10------|-10-----10-------|-10----------0---|----10------10---|
|-----0-------0---|-----0-------0---|-----0-----0---0-|---0-------0---0-|
|---0-------0---0-|---0-------0---0-|---0-------------|-----------------|
|-----------------|-----------------|-----------------|-----------------|
|-8-----8---------|-8-----8---------|-10----10--------|-10----10--------|

|---0---------|
|---3---------|
|---0---------|
|---0---------|
|---0---------|
|-------------|
            
Submit corrections

↑ Back to top | Tablatures and chords for acoustic guitar and electric guitar, ukulele, drums are parodies/interpretations of the original songs. You may use it for private study, scholarship, research or language learning purposes only