Home » J » Jose Gonzalez »

Jose Gonzalez - In Our Nature Tabs

Artists:  A B C D E F G H I J K L M N O P Q R S T U V W X Y Z # 

In Our Nature Tabs

(ver. 2) Click to play this song!
Jose Gonzalez
 Rating:
4.2/5 (5 votes)
                -------------------------------------------------------------------------------
-------------------------------------------------------------------------------

Tuning: D A D G B E (Capo 1)

To get the same feel, mute the 2nd string (B) on the offbeat of the 1st and
3rd beats. I've indicated this with an M on the first bar of the verse.

Intro (let ring)
E|--------------------------|
B|-----------3--------------|
G|-----0--------------------|
D|--------4-----------------|
A|--0-----------------------|
D|--------------------------|

Verse
    1  &  2  &  3  &  4  &     1  &  2  &  3  &  4  &
E|--------------------------|-----------------0--------|
B|--3--M--3-----3--M--3-----|--3-----3-----3-----0-----|
G|--------5-----------5-----|--------5-----------5-----|
D|--------5-----------5-----|--------5-----------5-----|
A|--0--------0--0--------0--|--0--------0--0--------0--|
D|--------------------------|--------------------------|

E|--------------------------|--------------------0-----|
B|--3-----3-----3-----3-----|--3-----3-----3-----0-----|
G|--------5-----------5-----|--------5-----------------|
D|--------5-----------5-----|--------5-----------------|
A|--0--------0--0--------0--|--0--------0--0--------0--|
D|--------------------------|--------------------------|

E|--------------------------|-----------------0--------|
B|--3-----3-----3-----3-----|--3-----3-----3-----0-----|
G|--------5-----------5-----|--------5-----------5-----|
D|--------5-----------5-----|--------5-----------5-----|
A|--0--------0--0--------0--|--0--------0--0--------0--|
D|--------------------------|--------------------------|

E|--------------------------|-------------------(0)----|
B|--3-----3-----3-----3-----|--3-----3-----0-----0-----|
G|--------5-----------5-----|--------5-----5-----5-----|
D|--------5-----------5-----|--------5-----------------|
A|--0--------0--0--------0--|--0--------------0-----0--|
D|--------------------------|-----------0--5-----------|

Chorus
E|--0-----0-----0-----0-----|--0-----0-----0-----0-----|
B|--0-----0-----0-----0-----|--0-----0-----0-----0-----|
G|--------------------------|--------------------------|
D|--------4-----------4-----|--------4-----------4-----|
A|--------------------------|--------------------------|
D|--5--------5--5--------5--|--5--------5--4--------4--|

E|--------------------------|--------0-----3-----5-----|
B|--3-----3-----3-----3-----|--3-----0-----------0-----|
G|--------5-----------5-----|--------------------------|
D|--------5-----------5-----|--------------------------|
A|--0--------0--0--------0--|--0--------0--0--------0--|
D|--------------------------|--------------------------|

E|--5-----5-----5-----5-----|--5-----------------------|
B|--0-----0-----0-----0-----|--0-----0-----0-(0)-0-(0)-|
G|--------------------------|--------0-----0-----0-----|
D|--------4-----------4-----|--------------------------|
A|--------------------------|--------3--2--0-----------|
D|--5--------5--5--------5--|--5--------------0--4--5--|

Second Chorus - Ending
E|--------------------------|--------------------------|
B|--3-----3-----3-----3-----|--3-----0-----0-(0)-0-(0)-|
G|--------5-----------5-----|--------0-----0-----0-----|
D|--------5-----------5-----|--------------------------|
A|--0--------0--0--------0--|--0-----3--2--0-----------|
D|--------------------------|-----------------0--4--5--|

E|--------------0-----0-----|--0-----------------------|
B|--------3-----0-----0-----|--0-----0-----0-(0)-0-(0)-|
G|--------5-----5-----5-----|--5-----0-----0-----0-----|
D|--------5-----------------|--------------------------|
A|--0--------0--0--------0--|--0-----3--2--0-----------|
D|--0--------0--0--------0--|--0--------------0--4--5--|


| /  slide up
| \  slide down
| h  hammer-on
| p  pull-off
| ~  vibrato
| +  harmonic
| x  Mute note
===============================================================================
            
Submit corrections

↑ Back to top | Tablatures and chords for acoustic guitar and electric guitar, ukulele, drums are parodies/interpretations of the original songs. You may use it for private study, scholarship, research or language learning purposes only