Home » J » Jose Gonzalez »

Jose Gonzalez - Hand On Your Heart Tabs

Artists:  A B C D E F G H I J K L M N O P Q R S T U V W X Y Z # 

Hand On Your Heart Tabs

(ver. 2) Click to play this song!
Jose Gonzalez
 Rating:
2.9/5 (30 votes)
                Introduction:

                                                                         —
  1   +   2   +   3   +   4   +    1   +   2   +   3   +   4   +          |
e|--------------------------------|--------------------------------|      |
B|--------------------------------|--------------------------------|      | 
A|------------4-------------------|------------4-------------------|      4x 
D|--------0-------0---------------|--------0-------0---------------|      |  
A|----5---------------5-------5---|----5---------------5-------5---|      |
D|5-----------------------5-------|5-----------------------5-------|      |
                                                                         —


Verse 1: (Well it's one thing...)

  1   +   2   +   3   +   4   +    1   +   2   +   3   +   4   +   
e|--------------------------------|--------------------------------|
B|--------------------------------|--------------------------------|
A|------------0-------------------|------------0-------------------|
D|--------0-------0---------------|--------0-------0---------------|
A|----5---------------5-------5---|----5---------------5-------5---|
D|5-----------------------5-------|4-----------------------4-------|

  1   +   2   +   3   +   4   +    1   +   2   +   3   +   4   +   
e|--------------------------------|--------------------------------|
B|--------------------------------|--------------------------------|
A|------------0-------------------|------------0-------------------|
D|--------0-------0---------------|--------0-------0---------------|
A|----5---------------5-------5---|----5---------------5-------5---|
D|2-----------------------2-------|0-----------------------0-------|

  1   +   2   +   3   +   4   +    1   +   2   +   3   +   4   +   
e|--------------------------------|--------------------------------|
B|--------------------------------|--------------------------------|
A|------------0-------------------|------------0-------------------|
D|--------0-------0---------------|--------0-------0---------------|
A|----5---------------5-------5---|----5---------------5-------5---|
D|5-----------------------5-------|5-----------------------5-------|

1st ending: (return to the beginning of the verse)
  1   +   2   +   3   +   4   +    1   +   2   +   3   +   4   +   
e|--------------------------------|--------------------------------|
B|--------------------------------|--------------------------------|
A|------------0-------------------|------------0-------------------|
D|--------0-------0---------------|--------0-------0---------------|
A|----5---------------5-------5---|----5---------------5-------5---|
D|5-----------------------5-------|5-----------------------5-------|

2nd ending: (skip the first ending, play this one, and continue)
  1   +   2   +   3   +   4   +    1   +   2   +   3   +   4   +   
e|--------------------------------|--------------------------------|
B|--------------------------------|--------------------------------|
A|------------0-------------------|------------0-------------------|
D|--------0-------0---------------|--------0-------0---------------|
A|----5---------------5-------5---|----5---------------5-------5---|
D|5-----------------------5-------|5-----------------------0-------|

  1   +   2   +   3   +   4   +    1   +   2   +   3   +   4   +   
e|--------------------------------|--------------------------------|
B|--------------------------------|--------------------------------|
A|------------0-------------------|------------0-------------------|
D|--------0-------0---------------|--------0-------0---------------|
A|----5---------------5-------5---|----5---------------5-------5---|
D|2-----------------------2-------|2-----------------------2-------|

  1   +   2   +   3   +   4   +    1   +   2   +   3   +   4   +   
e|--------------------------------|--------------------------------|
B|--------------------------------|--------------------------------|
A|------------0-------------------|------------0-------------------|
D|--------0-------0---------------|--------0-------0---------------|
A|----5---------------5-------5---|----5---------------5-------5---|
D|2-----------------------2-------|2-----------------------0-------|


Verse 2 (You know it's one thing...) is played the same as verse 1, 
with the Chorus beginning immediately after.


Chorus: (Put your hand on your heart...)

  1   +   2   +   3   +   4   +    1   +   2   +   3   +   4   +   
e|--------------------------------|--------------------------------|
B|------------0-------------------|------------0-------------------|
A|--------0-------0---------------|--------0-------0---------------|
D|----0---------------0-------0---|----0---------------0-------0---|
A|--------------------------------|--------------------------------|
D|5-----------------------5-------|4-----------------------4-------|

  1   +   2   +   3   +   4   +    1   +   2   +   3   +   4   +   
e|--------------------------------|--------------------------------|
B|------------0-------------------|------------0-------------------|
A|--------0-------0---------------|--------0-------0---------------|
D|----0---------------0-------0---|----0---------------0-------0---|
A|--------------------------------|------------------------0-------|
D|2-----------------------2-------|0-------------------------------|

  1   +   2   +   3   +   4   +    1   +   2   +   3   +   4   +   
e|--------------------------------|--------------------------------|
B|------------0-------------------|------------0-------------------|
A|--------0-------0---------------|--------0-------0---------------|
D|----4---------------4-------4---|----4---------------4-------4---|
A|2-----------------------2-------|0-----------------------0-------|
D|--------------------------------|--------------------------------|

  1   +   2   +   3   +   4   +    1   +   2   +   3   +   4   +   
e|--------------------------------|--------------------------------|
B|------------0-------------------|------------0-------------------|
A|--------0-------0---------------|--------0-------0---------------|
D|----4---------------4-------4---|----0---------------0-------0---|
A|--------------------------------|--------------------------------|
D|4-----------------------4-------|5-----------------------5-------|

  1   +   2   +   3   +   4   +    1   +   2   +   3   +   4   +   
e|--------------------------------|--------------------------------|
B|------------0-------------------|------------0-------------------|
A|--------0-------0---------------|--------0-------0---------------|
D|----0---------------0-------0---|----0---------------0-------0---|
A|--------------------------------|--------------------------------|
D|5-----------------------5-------|4-----------------------4-------|

  1   +   2   +   3   +   4   +    1   +   2   +   3   +   4   +   
e|--------------------------------|--------------------------------|
B|------------0-------------------|------------0-------------------|
A|--------0-------0---------------|--------0-------0---------------|
D|----0---------------0-------0---|----0---------------0-------0---|
A|--------------------------------|------------------------0-------|
D|2-----------------------2-------|0-------------------------------|

  1   +   2   +   3   +   4   +    1   +   2   +   3   +   4   +   
e|--------------------------------|--------------------------------|
B|------------0-------------------|------------0-------------------|
A|--------0-------0---------------|--------0-------0---------------|
D|----4---------------4-------4---|----4---------------4-------4---|
A|2-----------------------2-------|2-----------------------2-------|
D|--------------------------------|--------------------------------|

  1   +   2   +   3   +   4   +    1   +   2   +   3   +   4   +   
e|--------------------------------|--------------------------------|
B|------------0-------------------|------------0-------------------|
A|--------0-------0---------------|--------0-------0---------------|
D|----4---------------4-------4---|----4---------------4-------0---|
A|0-----------------------0-------|0-----------------------0-------|
D|--------------------------------|--------------------------------|

  1   +   2   +   3   +   4   +    1   +   2   +   3   +   4   +          
e|--------------------------------|--------------------------------|      
B|--------------------------------|--------------------------------|       
A|------------4-------------------|------------4-------------------|     
D|--------0-------0---------------|--------0-------0---------------|        
A|----5---------------5-------5---|----5---------------5-------5---|  
D|5-----------------------5-------|5-----------------------5-------|

  1   +   2   +   3   +   4   +    1   +   2   +   3   +   4   +          
e|--------------------------------|--------------------------------|      
B|--------------------------------|--------------------------------|       
A|------------4-------------------|------------4-------------------|     
D|--------0-------0---------------|--------0-------0---------------|        
A|----5---------------5-------5---|----5---------------5-------5---|  
D|5-----------------------5-------|5-----------------------5-------|


Verse 3 (They like to talk about forever...) is played the same
as verse 1, followed by the chorus.

Chorus 2 is only different in the last four measures, and is followed 
by the Coda:

[Replacing last four measures of Chorus 1 + Coda]

  1   +   2   +   3   +   4   +    1   +   2   +   3   +   4   +   
e|--------------------------------|--------------------------------|
B|--------------------------------|--------------------------------|
A|------------0-------------------|------------0-------------------|
D|--------0-------0---------------|--------0-------0---------------|
A|----5---------------5-------5---|----5---------------5-------5---|
D|5-----------------------5-------|5-----------------------5-------|

  1   +   2   +   3   +   4   +    1   +   2   +   3   +   4   +   
e|--------------------------------|--------------------------------|
B|--------------------------------|--------------------------------|
A|------------0-------------------|------------0-------------------|
D|--------0-------0---------------|--------0-------0---------------|
A|----5---------------5-------5---|----5---------------5-------5---|
D|5-----------------------5-------|5-----------------------5-------|

  1   +   2   +   3   +   4   +    1   +   2   +   3   +   4   +   
e|--------------------------------|--------------------------------|
B|--------------------------------|--------------------------------|
A|------------2-------------------|------------2-------------------|
D|--------0-------0---------------|--------0-------0---------------|
A|----5---------------5-------5---|----5---------------5-------5---|
D|5-----------------------5-------|5-----------------------5-------|

  1   +   2   +   3   +   4   +    1   +   2   +   3   +   4   +   
e|--------------------------------|--------------------------------|
B|--------------------------------|--------------------------------|
A|------------2-------------------|------------2-------------------|
D|--------0-------0---------------|--------0-------0---------------|
A|----5---------------5-------5---|----5---------------5-------5---|
D|5-----------------------5-------|5-----------------------5-------|

  1   +   2   +   3   +   4   +    1   +   2   +   3   +   4   +   
e|--------------------------------|--------------------------------|
B|--------------------------------|--------------------------------|
A|------------4-------------------|------------4-------------------|
D|--------0-------0---------------|--------0-------0---------------|
A|----5---------------5-------5---|----5---------------5-------5---|
D|5-----------------------5-------|5-----------------------5-------|

  1   +   2   +   3   +   4   +    1   +   2   +   3   +   4   +   
e|--------------------------------|--------------------------------|
B|--------------------------------|--------------------------------|
A|------------4-------------------|------------4-------------------|
D|--------0-------0---------------|--------0-------0---------------|
A|----5---------------5-------5---|----5---------------5-------5---|
D|5-----------------------5-------|5-----------------------5-------|


Coda:
                                                                        —   
  1   +   2   +   3   +   4   +    1   +   2   +   3   +   4   +         |
e|--------------------------------|--------------------------------|     |
B|------------0-------------------|------------0-------------------|     |
A|--------4-------4---------------|--------4-------4---------------|     |
D|----0---------------0-------0---|----0---------------0-------0---|     |
A|--------------------------------|--------------------------------|     |
D|5-----------------------5-------|5-----------------------5-------|     |
                                                                         2x
  1   +   2   +   3   +   4   +    1   +   2   +   3   +   4   +         |
e|--------------------------------|--------------------------------|     |
B|------------3-------------------|------------3-------------------|     |  
A|--------4-------4---------------|--------4-------4---------------|     |
D|----0---------------0-------0---|----0---------------0-------0---|     | 
A|--------------------------------|--------------------------------|     |
D|5-----------------------5-------|5-----------------------5-------|     |
                                                                        —
  1   +   2   +   3   +   4   +    1   +   2   +   3   +   4   +   
e|--------------------------------|--------------------------------|
B|------------0-------------------|------------0-------------------|
A|--------4-------4---------------|--------4-------4---------------|
D|----0---------------0-------0---|----0---------------0-------0---|
A|--------------------------------|--------------------------------|
D|5-----------------------5-------|5-----------------------5-------|

  1   +   2   +   3   +   4   +    1   +   2   +   3   +   4   +   
e|------------0-------------------|--------------------------------|
B|--------3-------3---------------|------------0-------------------|
A|----4---------------4-------4---|--------4-------4---------------|
D|--------------------------------|----0---------------0-------0---|
A|--------------------------------|--------------------------------|
D|5-----------------------5-------|5-----------------------5-------|

  1   +   2   +   3   +   4   +    1   +   2   +   3   +   4   +   
e|--------------------------------|--------------------------------|
B|------------2-------------------|------------0-------------------|
A|--------0-------0---------------|--------0-------0---------------|
D|----0---------------0-------0---|----0---------------0-------0---|
A|--------------------------------|--------------------------------|
D|5-----------------------5-------|5-----------------------5-------|

  1   +   2   +   3   +   4   +    1   +   2   +   3   +   4   +   
e|------------2-------------------|------------0-------------------|
B|--------0-------0---------------|--------0-------0---------------|
A|----0---------------0-------0---|----0---------------0-------0---|
D|--------------------------------|--------------------------------|
A|--------------------------------|--------------------------------|
D|5-----------------------5-------|5-----------------------5-------|

  1   +   2   +   3   +   4   +    1   +   2   +   3   +   4   +   
e|--------------------------------|--------------------------------|
B|------------3-------------------|------------0-------------------|
A|--------4-------4---------------|--------4-------4---------------|
D|----0---------------0-------0---|----0---------------0-------0---|
A|--------------------------------|--------------------------------|
D|5-----------------------5-------|5-----------------------5-------|
                                                                        —
  1   +   2   +   3   +   4   +    1   +   2   +   3   +   4   +         |
e|--------------------------------|--------------------------------|     |
B|------------0-------------------|------------0-------------------|     |
A|--------4-------4---------------|--------4-------4---------------|     |
D|----0---------------0-------0---|----0---------------0-------0---|     |
A|--------------------------------|--------------------------------|     |
D|5-----------------------5-------|5-----------------------5-------|     |
                                                                         2x
  1   +   2   +   3   +   4   +    1   +   2   +   3   +   4   +         |
e|--------------------------------|--------------------------------|     |
B|------------3-------------------|------------3-------------------|     |
A|--------4-------4---------------|--------4-------4---------------|     |
D|----0---------------0-------0---|----0---------------0-------0---|     |
A|--------------------------------|--------------------------------|     |
D|5-----------------------5-------|5-----------------------5-------|     |
                                                                        —
  1   +   2   +   3   +   4   +    1   +   2   +   3   +   4   +   
e|------------0-------------------|--------------------------------|
B|--------0-------0---------------|------------3-------------------|
A|----4---------------4-------4---|--------4-------4---------------|
D|--------------------------------|----0---------------0-------0---|
A|--------------------------------|--------------------------------|
D|5-----------------------5-------|5-----------------------5-------|

  1   +   2   +   3   +   4   +    1   +   2   +   3   +   4   +   
e|--------------------------------|--------------------------------|
B|------------2-------------------|------------0-------------------|
A|--------0-------0---------------|--------0-------0---------------|
D|----0---------------0-------0---|----0---------------0-------0---|
A|--------------------------------|--------------------------------|
D|5-----------------------5-------|5-----------------------5-------|

  1   +   2   +   3   +   4   +    1   +   2   +   3   +   4   +   
e|------------2-------------------|------------0-------------------|
B|--------0-------0---------------|--------0-------0---------------|
A|----0---------------0-------0---|----0---------------0-------0---|
D|--------------------------------|--------------------------------|
A|--------------------------------|--------------------------------|
D|5-----------------------5-------|5-----------------------5-------|

  1   +   2   +   3   +   4   +    1   +   2   +   3   +   4   +   
e|--------------------------------|--------------------------------|
B|------------3-------------------|------------0-------------------|
A|--------4-------4---------------|--------4-------4---------------|
D|----0---------------0-------0---|----0---------------0-------0---|
A|--------------------------------|--------------------------------|
D|5-----------------------5-------|5-----------------------5-------|
                                                                        —
  1   +   2   +   3   +   4   +    1   +   2   +   3   +   4   +         |
e|------------2-----------0-------|--------------------------------|     |
B|--------0-------0---------------|------------2-----------0-------|     |
A|----0---------------0-----------|--------0-------0---------------|     |
D|--------------------------------|----0---------------0-----------|     |
A|--------------------------------|--------------------------------|     |
D|5-----------------------5-------|5-----------------------5-------|     |
                                                                         2x
  1   +   2   +   3   +   4   +    1   +   2   +   3   +   4   +         |
e|--------------------------------|--------------------------------|     |
B|--------------------------------|--------------------------------|     |
A|------------0-------------------|------------0-------------------|     |
D|--------0-------0---------------|--------0-------0---------------|     |
A|----5---------------5-------5---|----5---------------5-------5---|     |
D|5-----------------------5-------|5-----------------------5-------|     |
                                                                        —
  1   +   2   +   3   +   4   +    1   +   2   +   3   +   4   +   
e|------------5-----------2-------|------------0-------------------|
B|--------0-------0---------------|--------0-------0-------2-------|
A|----0---------------0-----------|----0---------------0-----------|
D|--------------------------------|--------------------------------|
A|--------------------------------|--------------------------------|
D|5-----------------------5-------|5-----------------------5-------|

  1   +   2   +   3   +   4   +    1   +   2   +   3   +   4   +   
e|--------------------------------|--------------------------------|
B|------------0-------------------|--------------------------------|
A|--------0-------0-------0-------|------------0-------------------|
D|----0---------------0-----------|--------0-------0---------------|
A|--------------------------------|----5---------------5-------5---|
D|5-----------------------5-------|5-----------------------5-------|
                                                                        —
  1   +   2   +   3   +   4   +    1   +   2   +   3   +   4   +         |
e|--------------------------------|--------------------------------|     |
B|------------0-------------------|------------0-------------------|     |
A|--------4-------4---------------|--------4-------4---------------|     |
D|----0---------------0-------0---|----0---------------0-------0---|     |
A|--------------------------------|--------------------------------|     |
D|5-----------------------5-------|5-----------------------5-------|     |
                                                                         2x
  1   +   2   +   3   +   4   +    1   +   2   +   3   +   4   +         |
e|--------------------------------|--------------------------------|     |
B|------------3-------------------|------------3-------------------|     |
A|--------4-------4---------------|--------4-------4---------------|     |
D|----0---------------0-------0---|----0---------------0-------0---|     |
A|--------------------------------|--------------------------------|     |
D|5-----------------------5-------|5-----------------------5-------|     |
                                                                        —             

Fade away with these measures.

  1   +   2   +   3   +   4   +    1   +   2   +   3   +   4   +      
e|--------------------------------|--------------------------------|     
B|------------3-------------------|------------3-------------------|     
A|--------4-------4---------------|--------4-------4---------------|     
D|----0---------------0-------0---|----0---------------0-------0---|     
A|--------------------------------|--------------------------------|     
D|5-----------------------5-------|5-----------------------5-------|     

In all honesty, you can fade away with these measures at the beginning
of the Coda, but the section is musically significant, so I decided to
tab the entire thing.
            
Submit corrections

↑ Back to top | Tablatures and chords for acoustic guitar and electric guitar, ukulele, drums are parodies/interpretations of the original songs. You may use it for private study, scholarship, research or language learning purposes only