Home » J » Jose Gonzalez »

Jose Gonzalez - All You Deliver Tabs

Artists:  A B C D E F G H I J K L M N O P Q R S T U V W X Y Z # 

All You Deliver Tabs

(ver. 2) Click to play this song!
Jose Gonzalez
 Rating:
4/5 (9 votes)
                -----------------------------------------------------------------------------
07. All you deliver
-----------------------------------------------------------------------------



Tuning: D,A,D,F#,B,e
capo on 1st fret        


[Intro] and Verses (only repeat first two lines twice; Verse 2&3 with *):

   1   &   2   &   3   &   4   &    1   &   2   &   3   &   4   &
e |--------------------------------|--------------------------------|
B |----------0---------0---2-------|----------0---------0---2-------|
F#|------0---------0-----------0---|------0---------0------*3---0---|
D |---(0)--------------------------|---(0)--------------------------|
A |2-----------2-----------2-------|2-----------2-----------2-------|
D |--------------------------------|--------------------------------|

   1   &   2   &   3   &   4   &    1   &   2   &   3   &   4   &
e |--------------------------------|--------------------------------|
B |----------0---------0---2-------|----------0---------0---2-------|
F#|------0---------0---------------|------0---------0-----------0---|
D |0-----------0-----------0-------|---(0)--------------------------|
A |----------------------------2v0-|--------------------------------|
D |--------------------------------|2-----------2-----------2-------|
   
   1   &   2   &   3   &   4   &    1   &   2   &   3   &   4   &
e |------------------------2-------|------------------------2-------|
B |----------0---------0---2-------|----------0---------0---2-------|
F#|------0---------0-----------0---|------0---------0-----------0---|
D |---(0)--------------------------|---(0)--------------------------|
A |2-----------2-----------2-------|2-----------2-----------2-------|
D |--------------------------------|--------------------------------|

   1   &   2   &   3   &   4   &    1   &   2   &   3   &   4   &
e |--------------------------------|----------------2}--2}~~~-------|
B |2---------0---------0---2-------|----------0-----0}--0}~~~-------|
F#|------0---------0---------------|------0---------0}--0}~~~-------|
D |0-----------0-----------0-------|---(0)----------2}--2}~~~-------|
A |----------------------------2v0-|----------------x}--x}----------|
D |--------------------------------|2-----------2---2}--2}----------|


[Interlude 1]:
   
   1   &   2   &   3   &   4   &    1   &   2   &   3   &   4   &
e |------------------------2-------|--------------------------------|
B |----------0---------0-----------|----------0---------0---2-------|
F#|------0---------0-----------0---|------0---------0-----------0---|
D |---(0)--------------------------|---(0)--------------------------|
A |2-----------2-----------2-------|2-----------2-----------2-------|
D |--------------------------------|--------------------------------|

   1   &   2   &   3   &   4   &    1   &   2   &   3   &   4   &
e |------------------------2-------|----------------2}--2}~~~-------|
B |----------0---------0---2-------|----------0-----0}--0}~~~-------|
F#|------0---------0---------------|------0---------0}--0}~~~-------|
D |0-----------0-----------0-------|---(0)----------2}--2}~~~-------|
A |----------------------------2v0-|----------------x}--x}----------|
D |--------------------------------|2-----------2---2}--2}----------|


[Interlude 2]:

   1   &   2   &   3   &   4   &    1   &   2   &   3   &   4   &
e |------------------------2-------|--------------------------------|
B |----------0---------0-----------|----------0---------0---2-------|
F#|------0---------0-----------0---|------0---------0-----------0---|
D |---(0)--------------------------|---(0)--------------------------|
A |2-----------2-----------2-------|2-----------2-----------2-------|
D |--------------------------------|--------------------------------|

   1   &   2   &   3   &   4   &    1   &   2   &   3   &   4   &
e |------------------------2-------|--------------------------------|
B |----------0---------0---2-------|----------0---------0---2-------|
F#|------0---------0---------------|------0---------0-----------0---|
D |0-----------0-----------0-------|---(0)--------------------------|
A |----------------------------2v0-|--------------------------------|
D |--------------------------------|2-----------2-----------2-------|

   1   &   2   &   3   &   4   &    1   &   2   &   3   &   4   &
e |------------------------2-------|------------------------2-------|
B |----------0---------0-----------|----------0---------0-----------|
F#|------0---------0-----------0---|------0---------0-----------0---|
D |---(0)--------------------------|---(0)--------------------------|
A |2-----------2-----------2-------|2-----------2-----------2-------|
D |--------------------------------|--------------------------------|

   1   &   2   &   3   &   4   &    1   &   2   &   3   &   4   &
e |--------------------------------|--------------------------------|
B |2---------0---------0---2-------|----------0---------2-------0---|
F#|------0---------0---------------|------0---------0---0-------0---|
D |0-----------0-----------0-------|---(0)--------------------------|
A |----------------------------2v0-|--------------------------------|
D |--------------------------------|2-----------2-------2-----------|


Verse' ("distorted pictures is all you deliver..."):

   1   &   2   &   3   &   4   &    1   &   2   &   3   &   4   &
e |--------------------------------|--------------------------------|
B |----------0---------0---2-------|----------0---------0---2-------|
F#|------0---------0-----------0---|------0---------0------(3)--0---|
D |---(0)--------------------------|---(0)--------------------------|
A |2-----------2-----------2-------|2-----------2-----------2-------|
D |--------------------------------|--------------------------------|

   1   &   2   &   3   &   4   &    1   &   2   &   3   &   4   &
e |--------------------------------|--------------------------------|
B |----------0---------0---2-------|----------0---------0---2-------|
F#|------0---------0---------------|------0---------0-----------0---|   4x
D |0-----------0-----------0-------|---(0)--------------------------|
A |----------------------------2v0-|--------------------------------|
D |--------------------------------|2-----------2-----------2-------|

2nd line, 2nd time:

   1   &   2   &   3   &   4   &    1   &   2   &   3   &   4   &
e |--------------------------------|--------------------------------|
B |----------0---------0---2-------|----------0---------0---2-------|
F#|------0---------0---------------|------0---------0-----------0---|
D |---(0)--------------------------|---(0)--------------------------|
A |----------------------------2v0-|--------------------------------|
D |5------------5----------5-------|2-----------2-----------2-------|

2nd line last time:

   1   &   2   &   3   &   4   &    1   &   2   &   3   &   4   &
e |--------------------------------|--------------------------------|-
B |----------0---------0---2-------|----------0---------------------|0~~~
F#|------0---------0---------------|------0---------3---3---0-------|0~~~
D |0-----------0-----------0-------|2---------------0---0---0-------|0~~~
A |--------------------------------|----------------x---x---x-------|2~~~
D |--------------------------------|2-----------2---2---2---2-------|-


[Percussive Outro]:

(Tap the strings slightly with your forefinger for this percussive outro...)

   1   &   2   &   3   &   4   &    1   &   2   &   3   &   4   &
e |--------------------------------|--------------------------------|
B |------------0x--0x0x--2x----0x--|------------0x--0x0x--2x----0x--|
F#|------------0x--0x0x--0x----0x--|------------0x--0x0x--0x----0x--|
D |--------------------------------|--------------------------------|
A |2x------------------------------|2x------------------------------|
D |--------------------------------|--------------------------------|

   1   &   2   &   3   &   4   &    1   &   2   &   3   &   4   &
e |--------------------------------|--------------------------------|
B |------------0x--0x0x--2x----0x--|------------0x--0x0x--2x----0x--|
F#|------------0x--0x0x--0x----0x--|------------0x--0x0x--0x----0x--|   4x
D |--------------------------------|--------------------------------|
A |--------------------------------|0x------------------------------|
D |2x------------------------------|--------------------------------|

   1   &   2   &   3   &   4   &    
e |--------------------------------|
B |0x~~~---------------------------|
F#|0x~~~---------------------------|
D |--------------------------------|
A |2x~~~---------------------------|
D |--------------------------------|
            
Submit corrections

↑ Back to top | Tablatures and chords for acoustic guitar and electric guitar, ukulele, drums are parodies/interpretations of the original songs. You may use it for private study, scholarship, research or language learning purposes only