Home » J » Jonathan Richman »

Jonathan Richman - Egyptian Reggae Tabs

Artists:  A B C D E F G H I J K L M N O P Q R S T U V W X Y Z # 

Egyptian Reggae Tabs

(ver. 3) Click to play this song!
Jonathan Richman
egyptian raggea: 

e|--------------------------------------------------------------------------|
B|--------------------------------------------------------------------------|
G|--------------------------------------------------------------------------|
D|-----0--0-----------0-3-0-------------0--0------------0-3-0---------------|
A|-0-3------3-0---0-3-------3-0---0-0-3------3-0--0-0-3-------3-0-----------|
E|--------------------------------------------------------------------------|
                                                                     

e|--------------------------------------------------------------------------|
B|--------------------------------------------------------------------------|
G|--------------------------------------------------------------------------|
D|--------------------------------------------------------------------------|
A|0-0-3--------1-0--0-0-3-----1-1-0-----------------------------------------|
E|------3--3-3------------3-3-----------------------------------------------|
                                                                     repeat

Chords

  Dm              Am

e|-x--1-1-x--1--x--0-0-x--0---------|
B|-x--3-3-x--3--x--1-1-x--1---------|
G|-x--2-2-x--2--x--2-2-x--2---------| repeat
D|-x--0-0-x--0--x--2-2-x--2---------|  
A|-x--x-x-x--x--x--0-0-x--0---------|
E|-x--x-x-x--x--x--x-x-x--x---------|

   v  v ^ v  v  v  v ^ v  v
            
Submit corrections

↑ Back to top | Tablatures and chords for acoustic guitar and electric guitar, ukulele, drums are parodies/interpretations of the original songs. You may use it for private study, scholarship, research or language learning purposes only