Home » J » Jonathan Rhys Meyers »

Jonathan Rhys Meyers - This Time Tabs

Artists:  A B C D E F G H I J K L M N O P Q R S T U V W X Y Z # 

This Time Tabs

(ver. 1) Click to play this song!
Jonathan Rhys Meyers
(Intro)
I'm gonna post the rest soon, but this is all i have for now:

Drop D Tuning

Intro/Verse:

|-----0-00-0-00-0---------|
|-----5-55-3-33-3---------|
|-----4-44-2-22-2---------|
|-------------------------|
|-0-0---------------------|
|-0-0---------------------|


These are the chords I'm pretty sure.  You can probably figure out the strumming patter 
where to put em.


Pre-Chorus goes like this:


|--------------------<12>--<7>-|
|--------------------<12>--<7>-|
|--------------------<12>--<7>-|
|-0-0--00---3-3--5---<12>--<7>-|
|-0-0--00---3-3--5---<12>--<7>-|
|-0-0--00---3-3--5---<12>--<7>-|
            
Submit corrections

↑ Back to top | Tablatures and chords for acoustic guitar and electric guitar, ukulele, drums are parodies/interpretations of the original songs. You may use it for private study, scholarship, research or language learning purposes only