Home » J » Jonathan Rhys Meyers »

Jonathan Rhys Meyers - This Time Tabs

Artists:  A B C D E F G H I J K L M N O P Q R S T U V W X Y Z # 

This Time Tabs

(ver. 3) Click to play this song!
Jonathan Rhys Meyers
"This Time"

Tuning: Drop D

() : parenthesis mean harmonics - lightly touch the string above the fret
     indicated, strum, and let ring)
~  : means let the note ring

Intro

e -----0-00-000000-|
B -----2-22-222222-|
G -----3-33-333333-|  Repeat 4x
D -----0-00-000000-|
A -0-0-0-00-222222-|
D -0-0-0-00--------|

Verse 1

e -----0-00-000000-|
B -----2-22-222222-|
G -----3-33-333333-|  Repeat 3x
D -----0-00-000000-|
A -0-0-0-00-222222-|
D -0-0-0-00--------|

e -----0-0000-0-00----0-0000-0-00----0-00-000000-----0-00-000000-|
B -----2-2222-2-22----0-0000-0-00----2-22-222222-----2-22-222222-|
G -----3-3333-3-33----0-0000-0-00----3-33-333333-----3-33-333333-|
D -----0-0000-0-00----2-2222-2-22----0-00-000000-----0-00-000000-|
A -0-0-0-0000-0-002-2-2-2222-2-220-0-0-00-222222-0-0-0-00-222222-|
D -0-0-0-0000-0-002-2-2-2222-2-220-0-0-00--------0-0-0-00--------|

e -----0-00-000000-|
B -----2-22-222222-|
G -----3-33-333333-|  Repeat 3x
D -----0-00-000000-|
A -0-0-0-00-222222-|
D -0-0-0-00--------|

e -----0-0000-0-00----0-00-00-0-00----0-00-00-0-00-|
B -----2-2222-2-22----0-00-00-0-00----2-22-22-2-22-|
G -----3-3333-3-33----0-00-00-0-00----3-33-33-3-33-|
D -----0-0000-0-00----2-22-22-2-22----0-00-00-0-00-|
A -0-0-0-0000-0-002-2-2-22-22-2-220-0-0-00-00-0-00-|
D -0-0-0-0000-0-002-2-2-22-22-2-220-0-0-00-00-0-00-|

Prechorus 1

e -0--0--0-0--0--(12)--(7)-|
B -0--0--0-0--0--(12)--(7)-|
G -0--0--0-0--0--(12)--(7)-|
D -2--2--4-4--5--(12)--(7)-|
A -2--2--4-4--5--(12)--(7)-|
D -2--2--4-4--5--(12)--(7)-|

Chorus 1

e -----0-0-00-0-00----0-0-00-0-00----0-0-00-0-00-|
B -----0-0-00-0-00----2-2-22-2-22----0-0-00-0-00-|
G -----0-0-00-0-00----3-3-33-3-33----0-0-00-0-00-|
D -----5-5-55-5-55----0-0-00-0-00----5-5-55-5-55-|
A -5-5-5-5-55-5-550-0-0-0-00-0-005-5-5-5-55-5-55-|
D -5-5-5-5-55-5-550-0-0-0-00-0-005-5-5-5-55-5-55-|

e -----0-0-00-0-00----0-0-00-0-00----0-0-00-0-00-|
B -----0-0-00-0-00----0-0-00-0-00----0-0-00-0-00-|
G -----0-0-00-0-00----0-0-00-0-00----0-0-00-0-00-|
D -----2-2-22-2-22----5-5-55-5-55----9-9-99-9-99-|
A -2-2-2-2-22-2-225-5-5-5-55-5-559-9-9-9-99-9-99-|
D -2-2-2-2-22-2-225-5-5-5-55-5-559-9-9-9-99-9-99-|

e -----0-0-00-0-00----0-0-00-0-00----0-0-00-0-00-|
B -----0-0-00-0-00----0-0-00-0-00----0-0-00-0-00-|
G -----0-0-00-0-00----0-0-00-0-00----0-0-00-0-00-|
D -----7-7-77-7-77----5-5-55-5-55----5-5-55-5-55-|
A -7-7-7-7-77-7-775-5-5-5-55-5-555-5-5-5-55-5-55-|
D -7-7-7-7-77-7-775-5-5-5-55-5-555-5-5-5-55-5-55-|

Interlude

e -----0-00-000000-|
B -----2-22-222222-|
G -----3-33-333333-|  Repeat 4x
D -----0-00-000000-|
A -0-0-0-00-222222-|
D -0-0-0-00--------|

Verse 2

e -----0-00-000000-|
B -----2-22-222222-|
G -----3-33-333333-|  Repeat 3x
D -----0-00-000000-|
A -0-0-0-00-222222-|
D -0-0-0-00--------|

e -----0-0000-0-00----0-0000-0-00----0-00-000000-----0-00-000000-|
B -----2-2222-2-22----0-0000-0-00----2-22-222222-----2-22-222222-|
G -----3-3333-3-33----0-0000-0-00----3-33-333333-----3-33-333333-|
D -----0-0000-0-00----2-2222-2-22----0-00-000000-----0-00-000000-|
A -0-0-0-0000-0-002-2-2-2222-2-220-0-0-00-222222-0-0-0-00-222222-|
D -0-0-0-0000-0-002-2-2-2222-2-220-0-0-00--------0-0-0-00--------|

e -----0-00-000000-|
B -----2-22-222222-|
G -----3-33-333333-|  Repeat 3x
D -----0-00-000000-|
A -0-0-0-00-222222-|
D -0-0-0-00--------|

e -----0-0000-0-00----0-00-00-0-00----0-00-00-0-00-|
B -----2-2222-2-22----0-00-00-0-00----2-22-22-2-22-|
G -----3-3333-3-33----0-00-00-0-00----3-33-33-3-33-|
D -----0-0000-0-00----2-22-22-2-22----0-00-00-0-00-|
A -0-0-0-0000-0-002-2-2-22-22-2-220-0-0-00-00-0-00-|
D -0-0-0-0000-0-002-2-2-22-22-2-220-0-0-00-00-0-00-|

Prechorus 2

e -0--0--0-0--0--(12)--(7)-|
B -0--0--0-0--0--(12)--(7)-|
G -0--0--0-0--0--(12)--(7)-|
D -2--2--4-4--5--(12)--(7)-|
A -2--2--4-4--5--(12)--(7)-|
D -2--2--4-4--5--(12)--(7)-|

Chorus 2

e -----0-0-00-0-00----0-0-00-0-00----0-0-00-0-00-|
B -----0-0-00-0-00----2-2-22-2-22----0-0-00-0-00-|
G -----0-0-00-0-00----3-3-33-3-33----0-0-00-0-00-|
D -----5-5-55-5-55----0-0-00-0-00----5-5-55-5-55-|
A -5-5-5-5-55-5-550-0-0-0-00-0-005-5-5-5-55-5-55-|
D -5-5-5-5-55-5-550-0-0-0-00-0-005-5-5-5-55-5-55-|

e -----0-0-00-0-00----0-0-00-0-00----0-0-00-0-00-|
B -----0-0-00-0-00----0-0-00-0-00----0-0-00-0-00-|
G -----0-0-00-0-00----0-0-00-0-00----0-0-00-0-00-|
D -----2-2-22-2-22----5-5-55-5-55----9-9-99-9-99-|
A -2-2-2-2-22-2-225-5-5-5-55-5-559-9-9-9-99-9-99-|
D -2-2-2-2-22-2-225-5-5-5-55-5-559-9-9-9-99-9-99-|

e -----0-0-00-0-00----0-0-00-0-00----0-0-00-0-00-|
B -----0-0-00-0-00----0-0-00-0-00----0-0-00-0-00-|
G -----0-0-00-0-00----0-0-00-0-00----0-0-00-0-00-|
D -----7-7-77-7-77----5-5-55-5-55----5-5-55-5-55-|
A -7-7-7-7-77-7-775-5-5-5-55-5-555-5-5-5-55-5-55-|
D -7-7-7-7-77-7-775-5-5-5-55-5-555-5-5-5-55-5-55-|

Bridge

e -----0-0-00-0-00----0-0-00-0-00-|
B -----0-0-00-0-00----0-0-00-0-00-|
G -----0-0-00-0-00----0-0-00-0-00-|   Repeat 3x
D -----5-5-55-5-55----2-2-22-2-22-|
A -5-5-5-5-55-5-552-2-2-2-22-2-22-|
D -5-5-5-5-55-5-552-2-2-2-22-2-22-|

e -----0-0-00-0-00----0-00----0-00-|
B -----0-0-00-0-00----0-00----0-00-|
G -----0-0-00-0-00----0-00----0-00-|
D -----5-5-55-5-55----9-99----7-77-|
A -5-5-5-5-55-5-559-9-9-997-7-7-77-|
D -5-5-5-5-55-5-559-9-9-997-7-7-77-|

Chorus 3

e -----0-0-00-0-00----0-0-00-0-00----0-0-00-0-00-|
B -----0-0-00-0-00----2-2-22-2-22----0-0-00-0-00-|
G -----0-0-00-0-00----3-3-33-3-33----0-0-00-0-00-|
D -----5-5-55-5-55----0-0-00-0-00----5-5-55-5-55-|
A -5-5-5-5-55-5-550-0-0-0-00-0-005-5-5-5-55-5-55-|
D -5-5-5-5-55-5-550-0-0-0-00-0-005-5-5-5-55-5-55-|

e -----0-0-00-0-00----0-0-00-0-00----0-0-00-0-00-|
B -----0-0-00-0-00----0-0-00-0-00----0-0-00-0-00-|
G -----0-0-00-0-00----0-0-00-0-00----0-0-00-0-00-|
D -----2-2-22-2-22----5-5-55-5-55----9-9-99-9-99-|
A -2-2-2-2-22-2-225-5-5-5-55-5-559-9-9-9-99-9-99-|
D -2-2-2-2-22-2-225-5-5-5-55-5-559-9-9-9-99-9-99-|

e -----0-0-00-0-00----0-0-00-0-00----0~
B -----0-0-00-0-00----0-0-00-0-00----0~
G -----0-0-00-0-00----0-0-00-0-00----0~
D -----7-7-77-7-77----5-5-55-5-55----5~
A -7-7-7-7-77-7-775-5-5-5-55-5-555-5-5~
D -7-7-7-7-77-7-775-5-5-5-55-5-555-5-5~

Outro

                                       (slow down here)

e -----0-00-000000-----0-00-000000-----0-00-000000-0~|
B -----2-22-222222-----2-22-222222-----2-22-222222-2~|
G -----3-33-333333-----3-33-333333-----3-33-333333-3~|
D -----0-00-000000-----0-00-000000-----0-00-000000-0~|
A -0-0-0-00-222222-0-0-0-00-222222-0-0-0-00-222222-0~|
D -0-0-0-00--------0-0-0-00--------0-0-0-00--------0~|


...and there you go! ENJOY!
            
Submit corrections

↑ Back to top | Tablatures and chords for acoustic guitar and electric guitar, ukulele, drums are parodies/interpretations of the original songs. You may use it for private study, scholarship, research or language learning purposes only