Home » J » John Prine »

John Prine - Illegal Smile Tabs

Artists:  A B C D E F G H I J K L M N O P Q R S T U V W X Y Z # 

Illegal Smile Tabs

(ver. 2) Click to play this song!
John Prine
Capo 5
 
[Intro]  (4/4 Time)
 
e|----------------|------------------|------------------|------------------|
B|----------------|---0--------------|---0--------------|---0--------------|
G|-0------------0-|--------0-------0-|--------0-------0-|--------0-------0-|
D|------0-----0---|------0-------0---|------0-------0---|------0-------0---|
A|----------------|------------------|------------------|------------------|
E|---3-----3------|-0h3-------3------|-0h3-------3------|-0h3-------3------|
 
 
[Verse 1]
 
e|---------------|-------2---------|---------------|--------------|------------------|
B|---------------|-----3-----3-----|---------------|--------------|------------------|
G|---------------|---2---------2-0-|------0------0-|------------0-|------0------0----|
D|------0-----0--|-0-------0-------|----2------2---|----0-----0---|----2------2------|
A|---------------|-----------------|-3------3------|--------------|-3------3---------|
E|---3-----3-----|-----------------|---------------|-3-----3------|------------------|
 
e|---------------|-------0---------|---------------|-------2---------|---------------|
B|---------------|---3-----------1-|---------------|-----3-----3-----|---------------|
G|-------------0-|-----2-----0-----|------------0--|---2---------2-0-|------0------0-|
D|-----0-----0---|-0-----------2---|----0-----0----|-0-------0-------|----2------2---|
A|---------------|---------3-------|---------------|-----------------|-3------3------|
E|--3-----3------|-----------------|-3-----3-------|-----------------|---------------|
 
e|---------------|--------------|-------2----------|-----------------|---------------|
B|------------1--|-0------------|-----3-----3------|-------1-------1-|------------1--|
G|---------------|------------0-|---2---------2-0--|---0-------0-----|---------------|
D|-----0----0-2--|----0-----0---|-0-------0--------|-----2-------2---|-----0----0-2--|
A|---------------|--------------|------------------|-3-------3-------|---------------|
E|--3-----3------|-3-----3------|------------------|-----------------|--3-----3------|
 
e|---------------|--------2--|------------------|--------------------|-----------|
B|--0------------|------3----|------------------|--------------------|-----------|
G|-------------0-|----2------|--0------0------0-|------0---0---0-----|-----------|
D|-----0-----0---|--0--------|-------0------0---|----2---------------|-----------|
A|---------------|-----------|------------------|-3------2---0-------|-----0--2--|
E|--3-----3------|-----------|----3------3------|----------------3---|--3--------| 
 
 
 
[Chorus]  6/8 Time - Strumming Chords
 
    D  D  D U   D  D  D U     D  D  D U   D  D  D U     D  D  D U   D  D  D U     D  D  D U
e|--3--3--3-3---3--3--3-3--|--3--3--3-3---3--3--3-3--|--2--2--2-2---2--2--2-2--|--3--3--3-3------------|
B|--1--1--1-1---1--1--1-1--|--0--0--0-0---0--0--0-0--|--3--3--3-3---3--3--3-3--|--0--0--0-0------------|
G|--0--0--0-0---0--0--0-0--|--0--0--0-0---0--0--0-0--|--2--2--2-2---2--2--2-2--|--0--0--0-0------------|
D|--2--2--2-2---2--2--2-2--|--0--0--0-0---0--0--0-0--|--0--0--0-0---0--0--0-0--|--0--0--0-0------------|
A|--3--3--3-3---3--3--3-3--|--2--2--2-2---2--2--2-2--|-------------------------|--2--2--2-2------0--2--|
E|-------------------------|--3--3--3-3---3--3--3-3--|-------------------------|--3--3--3-3---3--------|
 
e|--3--3--3-3---3--3--3-3--|--3--3--3-3---3--3--3-3--|--2--2--2---0--0--0--|--3--3--3---3--3--3--|
B|--1--1--1-1---1--1--1-1--|--0--0--0-0---0--0--0-0--|--3--3--3---1--1--1--|--0--0--1---0--0--1--|
G|--0--0--0-0---0--0--0-0--|--0--0--0-0---0--0--0-0--|--2--2--2---0--0--0--|--0--0--0---0--0--0--|
D|--2--2--2-2---2--2--2-2--|--0--0--0-0---0--0--0-0--|--0--0--0---2--2--2--|--0--0--2---0--0--2--|
A|--3--3--3-3---3--3--3-3--|--2--2--2-2---2--2--2-2--|------------3--3--3--|--2--2--3---2--2--3--|
E|-------------------------|--3--3--3-3---3--3--3-3--|---------------------|--3--3------3--3-----|
 
e|--3--3--3---|
B|--0--0--1---|
G|--0--0--0---|
D|--0--0--2---|
A|--2--2--3---|
E|--3--3------|
 
[Verse 2]
 
e|---------------|-------2---------|---------------|--------------|------------------|
B|---------------|-----3-----3-----|---------------|--------------|------------------|
G|---------------|---2---------2-0-|------0------0-|------------0-|------0------0----|
D|------0-----0--|-0-------0-------|----2------2---|----0-----0---|----2------2------|
A|---------------|-----------------|-3------3------|--------------|-3------3---------|
E|---3-----3-----|-----------------|---------------|-3-----3------|------------------|
 
e|---------------|-------0---------|---------------|-------2---------|---------------|
B|---------------|---3-----------1-|---------------|-----3-----3-----|---------------|
G|-------------0-|-----2-----0-----|------------0--|---2---------2-0-|------0------0-|
D|-----0-----0---|-0-----------2---|----0-----0----|-0-------0-------|----2------2---|
A|---------------|---------3-------|---------------|-----------------|-3------3------|
E|--3-----3------|-----------------|-3-----3-------|-----------------|---------------|
 
e|---------------|--------------|-------2----------|-----------------|---------------|
B|------------1--|-0------------|-----3-----3------|-------1-------1-|------------1--|
G|---------------|------------0-|---2---------2-0--|---0-------0-----|---------------|
D|-----0----0-2--|----0-----0---|-0-------0--------|-----2-------2---|-----0----0-2--|
A|---------------|--------------|------------------|-3-------3-------|---------------|
E|--3-----3------|-3-----3------|------------------|-----------------|--3-----3------|
 
e|---------------|--------2--|------------------|--------------------|-----------|
B|--0------------|------3----|------------------|--------------------|-----------|
G|-------------0-|----2------|--0------0------0-|------0---0---0-----|-----------|
D|-----0-----0---|--0--------|-------0------0---|----2---------------|-----------|
A|---------------|-----------|------------------|-3------2---0-------|-----0--2--|
E|--3-----3------|-----------|----3------3------|----------------3---|--3--------| 
 
 
[Chorus]  6/8 Time - Strumming Chords
 
    D  D  D U   D  D  D U     D  D  D U   D  D  D U     D  D  D U   D  D  D U     D  D  D U
e|--3--3--3-3---3--3--3-3--|--3--3--3-3---3--3--3-3--|--2--2--2-2---2--2--2-2--|--3--3--3-3------------|
B|--1--1--1-1---1--1--1-1--|--0--0--0-0---0--0--0-0--|--3--3--3-3---3--3--3-3--|--0--0--0-0------------|
G|--0--0--0-0---0--0--0-0--|--0--0--0-0---0--0--0-0--|--2--2--2-2---2--2--2-2--|--0--0--0-0------------|
D|--2--2--2-2---2--2--2-2--|--0--0--0-0---0--0--0-0--|--0--0--0-0---0--0--0-0--|--0--0--0-0------------|
A|--3--3--3-3---3--3--3-3--|--2--2--2-2---2--2--2-2--|-------------------------|--2--2--2-2------0--2--|
E|-------------------------|--3--3--3-3---3--3--3-3--|-------------------------|--3--3--3-3---3--------|
 
e|--3--3--3-3---3--3--3-3--|--3--3--3-3---3--3--3-3--|--2--2--2---0--0--0--|--3--3--3---3--3--3--|
B|--1--1--1-1---1--1--1-1--|--0--0--0-0---0--0--0-0--|--3--3--3---1--1--1--|--0--0--1---0--0--1--|
G|--0--0--0-0---0--0--0-0--|--0--0--0-0---0--0--0-0--|--2--2--2---0--0--0--|--0--0--0---0--0--0--|
D|--2--2--2-2---2--2--2-2--|--0--0--0-0---0--0--0-0--|--0--0--0---2--2--2--|--0--0--2---0--0--2--|
A|--3--3--3-3---3--3--3-3--|--2--2--2-2---2--2--2-2--|------------3--3--3--|--2--2--3---2--2--3--|
E|-------------------------|--3--3--3-3---3--3--3-3--|---------------------|--3--3------3--3-----|
 
e|--3--3--3---|
B|--0--0--1---|
G|--0--0--0---|
D|--0--0--2---|
A|--2--2--3---|
E|--3--3------|
 
[Verse 3]
 
e|---------------|-------2---------|---------------|--------------|------------------|
B|---------------|-----3-----3-----|---------------|--------------|------------------|
G|---------------|---2---------2-0-|------0------0-|------------0-|------0------0----|
D|------0-----0--|-0-------0-------|----2------2---|----0-----0---|----2------2------|
A|---------------|-----------------|-3------3------|--------------|-3------3---------|
E|---3-----3-----|-----------------|---------------|-3-----3------|------------------|
 
e|---------------|-------0---------|---------------|-------2---------|---------------|
B|---------------|---3-----------1-|---------------|-----3-----3-----|---------------|
G|-------------0-|-----2-----0-----|------------0--|---2---------2-0-|------0------0-|
D|-----0-----0---|-0-----------2---|----0-----0----|-0-------0-------|----2------2---|
A|---------------|---------3-------|---------------|-----------------|-3------3------|
E|--3-----3------|-----------------|-3-----3-------|-----------------|---------------|
 
e|---------------|--------------|-------2----------|-----------------|---------------|
B|------------1--|-0------------|-----3-----3------|-------1-------1-|------------1--|
G|---------------|------------0-|---2---------2-0--|---0-------0-----|---------------|
D|-----0----0-2--|----0-----0---|-0-------0--------|-----2-------2---|-----0----0-2--|
A|---------------|--------------|------------------|-3-------3-------|---------------|
E|--3-----3------|-3-----3------|------------------|-----------------|--3-----3------|
 
e|---------------|--------2--|------------------|--------------------|-----------|
B|--0------------|------3----|------------------|--------------------|-----------|
G|-------------0-|----2------|--0------0------0-|------0---0---0-----|-----------|
D|-----0-----0---|--0--------|-------0------0---|----2---------------|-----------|
A|---------------|-----------|------------------|-3------2---0-------|-----0--2--|
E|--3-----3------|-----------|----3------3------|----------------3---|--3--------| 
 
 
[Chorus]  6/8 Time - Strumming Chords
 
    D  D  D U   D  D  D U     D  D  D U   D  D  D U     D  D  D U   D  D  D U     D  D  D U
e|--3--3--3-3---3--3--3-3--|--3--3--3-3---3--3--3-3--|--2--2--2-2---2--2--2-2--|--3--3--3-3------------|
B|--1--1--1-1---1--1--1-1--|--0--0--0-0---0--0--0-0--|--3--3--3-3---3--3--3-3--|--0--0--0-0------------|
G|--0--0--0-0---0--0--0-0--|--0--0--0-0---0--0--0-0--|--2--2--2-2---2--2--2-2--|--0--0--0-0------------|
D|--2--2--2-2---2--2--2-2--|--0--0--0-0---0--0--0-0--|--0--0--0-0---0--0--0-0--|--0--0--0-0------------|
A|--3--3--3-3---3--3--3-3--|--2--2--2-2---2--2--2-2--|-------------------------|--2--2--2-2------0--2--|
E|-------------------------|--3--3--3-3---3--3--3-3--|-------------------------|--3--3--3-3---3--------|
 
e|--3--3--3-3---3--3--3-3--|--3--3--3-3---3--3--3-3--|--2--2--2---0--0--0--|--3--3--3---3--3--3--|
B|--1--1--1-1---1--1--1-1--|--0--0--0-0---0--0--0-0--|--3--3--3---1--1--1--|--0--0--1---0--0--1--|
G|--0--0--0-0---0--0--0-0--|--0--0--0-0---0--0--0-0--|--2--2--2---0--0--0--|--0--0--0---0--0--0--|
D|--2--2--2-2---2--2--2-2--|--0--0--0-0---0--0--0-0--|--0--0--0---2--2--2--|--0--0--2---0--0--2--|
A|--3--3--3-3---3--3--3-3--|--2--2--2-2---2--2--2-2--|------------3--3--3--|--2--2--3---2--2--3--|
E|-------------------------|--3--3--3-3---3--3--3-3--|---------------------|--3--3------3--3-----|
 
e|--3--3--3---|
B|--0--0--1---|
G|--0--0--0---|
D|--0--0--2---|
A|--2--2--3---|
E|--3--3------|
 
 
 
END
 
 
NOTES:
 
Hear are some "C" chords picking variations that can be heard on the record and in some live versions:
 
E|-------------------|   E|--------------------|   E|-------------------|
B|-------------------|   B|--------------------|   B|-------------------|
G|----0-----0-----0--|   G|-------0---------0--|   G|-------0--------0--|
D|------2-----2------|   D|-----2---------2----|   D|-----2------0h2----|
A|--3-----3-----3----|   A|--3-------0h3-------|   A|--3-------3--------|
E|-------------------|   E|--------------------|   E|-------------------|
            
Submit corrections

↑ Back to top | Tablatures and chords for acoustic guitar and electric guitar, ukulele, drums are parodies/interpretations of the original songs. You may use it for private study, scholarship, research or language learning purposes only