» » »

Johnny Winter - Parchman Farm Tabs

Artists:  A B C D E F G H I J K L M N O P Q R S T U V W X Y Z # 

Parchman Farm Tabs

(ver. 1) Click to play this song!
Johnny Winter
 Rating:
4.1/5 (22 votes)

 Parchman Farm  lessons Tabs too difficult? Try these video lessons and learn fast
 
                Intro
  Q=145
  N.C.
 4/4
  Gtr I (El. Gtr. w/ light dist.)
  q  e E E Q  E   q  e E E Q  E   q  e E E Q  E   q  e E E Q  E
|---------------|---------------|---------------|----------------|
|---------------|---------------|---------------|----------------|
|---------------|---------------|---------------|----------------|
|----4-----2--4-|----4-----2--4-|----4-----2--4-|----4-----2--4--|
|------2h4------|------2h4------|------2h4------|------2h4-------|
|-2-------------|-2-------------|-2-------------|-2--------------|


  F#7                               N.C.
  q  E E +Q   Q    q  E E +Q   Q    q  E E E Q  E   q  E E E E S S E
|----------------|----------------|---------------|------------------|
|-5----5-(5)-----|-5----5-(5)-----|---------------|------------------|
|-3----3-(3)-----|-3----3-(3)-----|---------------|----------------2-|
|-2----2-(2)-----|-2----2-(2)-----|----------2--4-|----4-----2-2h4---|
|-4----4-(4)-----|-4----4-(4)-----|------2s4------|------2h4---------|
|-2----2-(2)-----|-2----2-(2)-----|-2-------------|-2----------------|


  E   +E  E E   e E S S E   E E   E E E E E E   E E E E a E E S S E
|---------2---------------|-------2---2---5-2-|---2-----------------|
|-------------------------|---------5---2-----|-5---2-5-------------|
|-4b6-(4)---4b6-4-2-4p2---|-2-4b5-------------|---------6s4-2-4p2---|
|-----------------------4-|-------------------|-------------------4-|
|-------------------------|-------------------|---------------------|
|-------------------------|-------------------|---------------------|


        |-3-| |-3-|
  S S E E E E E E E S S E   q  e E E Q  E   q  e E E Q  E
|-------------------------|---------------|---------------||
|-------------------------|---------------|---------------||
|-4p2---------------------|---------------|---------------||
|-----4-----2-----2-------|----4-----2--4-|----4-----2--4-||
|-------2h4---2h4---3-2p0-|------2h4------|------2h4------||
|-------------------------|-2-------------|-2-------------||


 1st Verse
  N.C.
  q  e E E Q  E   q  e E E Q  E   q  e E E Q  E   q  e E E Q  E
|---------------|---------------|---------------|----------------|
|---------------|---------------|---------------|----------------|
|---------------|---------------|---------------|----------------|
|----4-----2--4-|----4-----2--4-|----4-----2--4-|----4-----2--4--|
|------2h4------|------2h4------|------2h4------|------2h4-------|
|-2-------------|-2-------------|-2-------------|-2--------------|


  q  e E E Q  E   q  e E E Q  E   q  e E E Q  E   q  e E E Q  E
|---------------|---------------|---------------|----------------|
|---------------|---------------|---------------|----------------|
|---------------|---------------|---------------|----------------|
|----4-----2--4-|----4-----2--4-|----4-----2--4-|----4-----2--4--|
|------2h4------|------2h4------|------2h4------|------2h4-------|
|-2-------------|-2-------------|-2-------------|-2--------------|


  F#7           F#7           B7
  E E Q  H      E E Q  H      E E Q  H      H    Q  Q
|-------------|-------------|-2-----------|--------------|
|-5-----------|-5-----------|-4-----------|--------------|
|-3-----------|-3-----------|-2-----------|--------------|
|-2-----------|-2-----------|-4-----------|--------------|
|-4-----------|-4-----------|-2-----------|--------------|
|-2-----------|-2-----------|-------------|---------x\---|


  N.C.
  q  E E E Q  E   q  e E E Q  E   q  e E E Q  E   q  e E E Q  E
|---------------|---------------|---------------|----------------||
|---------------|---------------|---------------|----------------||
|---------------|---------------|---------------|----------------||
|----------2--4-|----4-----2--4-|----4-----2--4-|----4-----2--4--||
|------2h4------|------2h4------|------2h4------|------2h4-------||
|-2-------------|-2-------------|-2-------------|-2--------------||


 Interlude
  N.C.
  q  e E E Q  E   q  e E E Q  E   q  e E E Q  E   q  e E E Q  E
|---------------|---------------|---------------|---------------||
|---------------|---------------|---------------|---------------||
|---------------|---------------|---------------|---------------||
|----5-----3--5-|----5-----3--5-|----5-----3--5-|----5-----3--5-||
|------3h5----5-|------3h5----5-|------3h5----5-|------3h5----5-||
|-3-------------|-3-------------|-3-------------|-3-------------||


 2nd Verse
  N.C.
  q  e E E Q  E   q  e E E Q  E   q  e E E Q  E   q  e E E Q  E
|---------------|---------------|---------------|---------------|
|---------------|---------------|---------------|---------------|
|---------------|---------------|---------------|---------------|
|----5-----3--5-|----5-----3--5-|----5-----3--5-|----5-----3--5-|
|------3h5----5-|------3h5----5-|------3h5----5-|------3h5----5-|
|-3-------------|-3-------------|-3-------------|-3-------------|


  q  e E E Q  E   q  e E E Q  E   q  e E E Q  E   q  e E E Q  E
|---------------|---------------|---------------|---------------|
|---------------|---------------|---------------|---------------|
|---------------|---------------|---------------|---------------|
|----5-----3--5-|----5-----3--5-|----5-----3--5-|----5-----3--5-|
|------3h5----5-|------3h5----5-|------3h5----5-|------3h5----5-|
|-3-------------|-3-------------|-3-------------|-3-------------|


  G7                          C7
  E E Q  H      E E Q  H      E E Q  H      H    Q  Q
|-------------|-------------|-3-----------|-------------|
|-3-----------|-3-----------|-5-----------|-------------|
|-4-----------|-4-----------|-3-----------|-------------|
|-3-----------|-3-----------|-5-----------|-------------|
|-5-----------|-5-----------|-3-----------|-------------|
|-3-----------|-3-----------|-------------|---------x\--|


  N.C.
  q  E E E Q  E   q  e E E Q  E   q  e E E Q  E   q  e E E Q  E
|---------------|---------------|---------------|---------------||
|---------------|---------------|---------------|---------------||
|---------------|---------------|---------------|---------------||
|----------3--5-|----5-----3--5-|----5-----3--5-|----5-----3--5-||
|------3h5----5-|------3h5----5-|------3h5----5-|------3h5----5-||
|-3-------------|-3-------------|-3-------------|-3-------------||


 Interlude
  N.C.
  q  e E E Q  E   q  e E E Q  E
|---------------|---------------|
|---------------|---------------|
|---------------|---------------|
|----6-----4--6-|----6-----4--6-|
|------4h6----6-|------4h6----6-|
|-4-------------|-4-------------|


  Q    E     E S +S  E E E   E    E  E     E S +S  E Q
|--------------------------|----------------------------||
|-7b9--7pb9==7-7r(7)p4-----|------7--------6------------||
|----------------------6-4-|-6b8-(6)-6pb8==6-6r(6)-4----||
|--------------------------|-------------------------6--||
|--------------------------|----------------------------||
|--------------------------|----------------------------||


 3rd Verse
  N.C.
  q  e E E Q  E   q  e E E Q  E   q  e E E Q  E   q  e E E Q  E
|---------------|---------------|---------------|---------------|
|---------------|---------------|---------------|---------------|
|---------------|---------------|---------------|---------------|
|----6-----4--6-|----6-----4--6-|----6-----4--6-|----6-----4--6-|
|------4h6----6-|------4h6----6-|------4h6----6-|------4h6----6-|
|-4-------------|-4-------------|-4-------------|-4-------------|


  q  e E E Q  E   q  e E E Q  E   q  e E E Q  E   q  e E E Q  E
|---------------|---------------|---------------|---------------|
|---------------|---------------|---------------|---------------|
|---------------|---------------|---------------|---------------|
|----6-----4--6-|----6-----4--6-|----6-----4--6-|----6-----4--6-|
|------4h6----6-|------4h6----6-|------4h6----6-|------4h6----6-|
|-4-------------|-4-------------|-4-------------|-4-------------|


  Ab7                         Db7
  E E Q  H      E E Q  H      E E Q  H      H    Q  Q
|-------------|-------------|-7-----------|-------------|
|-7-----------|-7-----------|-6-----------|-------------|
|-5-----------|-5-----------|-4-----------|-------------|
|-4-----------|-4-----------|-6-----------|-------------|
|-6-----------|-6-----------|-4-----------|-------------|
|-4-----------|-4-----------|-------------|---------x\--|


  N.C.
  q  e E E Q  E   q  e E E Q  E   q  e E E Q  E   q  e E E Q  E
|---------------|---------------|---------------|---------------||
|---------------|---------------|---------------|---------------||
|---------------|---------------|---------------|---------------||
|----6-----4--6-|----6-----4--6-|----6-----4--6-|----6-----4--6-||
|------4h6----6-|------4h6----6-|------4h6----6-|------4h6----6-||
|-4-------------|-4-------------|-4-------------|-4-------------||


 Interlude
  N.C.
  Q  Q  E E E E   +E  Q  E +E  Q  E   Q  Q  E E E E   +E  Q  E +E  Q  E
|---------------|-------------------|---------------|-------------------||
|-------------3-|-(3)-2--0-(0)-2----|-------------3-|-(3)-2--0-(0)-2----||
|----2--2-0---0-|-(0)-0--0-(0)------|----2--2-0---0-|-(0)----0-(0)------||
|-----------2---|-------------------|-----------2---|-------------------||
|-0-------------|-----------------x-|-0-------------|-----------------x-||
|---------------|-------------------|---------------|-------------------||


 4th Verse
  N.C.
  Q  Q  E Q  E   E E E E E Q.     E E E E E Q  E   Q  E E E Q.
|--------------|----------------|----------------|---------------|
|--------------|----------------|----------------|---------------|
|----2--0-2----|-----2---0-2----|-----2---0-2----|-2--2---0-2----|
|----2--x-2----|---2-2-2-x-2----|---2-2-2-x-2----|-2--2---x-2----|
|-0----------0-|-0--------------|-0------------0-|------x--------|
|--------------|----------------|----------------|---------------|


  Q  Q  E Q  E   Q  Q  E Q  E   E E Q  E Q  E   Q  E E E Q.
|--------------|--------------|---------------|---------------|
|--------------|--------------|---------------|---------------|
|-------0-2----|-2--2--0-2----|-----2--0-2----|-2--2---0-2----|
|----2--x-2----|-2--2--x-2----|---2-2--x-2----|-2--2---x-2----|
|-0--0-------0-|------------0-|-0-----------0-|------x--------|
|--------------|--------------|---------------|---------------|


  A             A7            D7
  E E Q  H      E E Q  H      E E Q  H      H    Q  Q
|-------------|-------------|-------------|-------------||
|-2-----------|-2-----------|-7-----------|-------------||
|-2-----------|-0-----------|-5-----------|-------------||
|-2-----------|-2-----------|-7-----------|-------------||
|-0-----------|-0-----------|-5-----------|-------------||
|-------------|-------------|-------------|---------x\--||


 Outro
  N.C.
  q  e E E Q  E   q  e E E Q  E   q  e E E Q  E   q  e E E Q  E
|---------------|---------------|---------------|---------------|
|---------------|---------------|---------------|---------------|
|---------------|---------------|---------------|---------------|
|----7-----5--7-|----7-----5--7-|----7-----5--7-|----7-----5--7-|
|------5h7------|------5h7------|------5h7------|------5h7------|
|-5-------------|-5-------------|-5-------------|-5-------------|


                                  A7
  q  e E E Q  E   q  e E E Q  E   q  E E +H       q  E E +H
|---------------|---------------|-3----3-(3)----|-3----3-(3)----|
|---------------|---------------|-2----2-(2)----|-2----2-(2)----|
|---------------|---------------|-0----0-(0)----|-0----0-(0)----|
|----7-----5--7-|----7-----5--7-|-2----2-(2)----|-2----2-(2)----|
|------5h7------|------5h7------|-0----0-(0)----|-0----0-(0)----|
|-5-------------|-5-------------|---------------|---------------|


  <
  E E E E E E E E   E E E E E E E E   q  Q  H
|-3-3-3-3-3-3-3-3-|-3-3-3-3-3-3-3-3-|-3----------*|
|-2-2-2-2-2-2-2-2-|-2-2-2-2-2-2-2-2-|-2----------*|
|-0-0-0-0-0-0-0-0-|-0-0-0-0-0-0-0-0-|-0----------*|
|-2-2-2-2-2-2-2-2-|-2-2-2-2-2-2-2-2-|-2----------*|
|-0-0-0-0-0-0-0-0-|-0-0-0-0-0-0-0-0-|-0----------*|
|-----------------|-----------------|------------*|            
Submit corrections


        Parchman Farm  lessons Hard to play? Try these video lessons and learn fast Parchman Farm  lessons
        
↑ Back to top | Tablatures and chords for acoustic guitar and electric guitar, ukulele, drums are parodies/interpretations of the original songs. You may use it for private study, scholarship, research or language learning purposes only