» » »

Johnny Winter - Parchman Farm Bass

Artists:  A B C D E F G H I J K L M N O P Q R S T U V W X Y Z # 

Parchman Farm Bass

(ver. 1) Click to play this song!
Johnny Winter
 Rating:
2.5/5 (26 votes)

 Parchman Farm  lessons Tabs too difficult? Try these video lessons and learn fast
 
                 Intro
  Q=145
 4/4
  Gtr I
  W          W          Q.   E E Q.     Q.   E E Q.
|----------|----------|---------------|----------------|
|----------|----------|--------4-2----|--------4-2-----|
|----------|----------|---------------|----------------|
|----------|----------|-2-------------|-2--------------|


  Q  E E +Q   Q    Q  E E +Q   Q
|----------------|----------------|
|----------------|----------------|
|----------------|----------------|
|-2----2-(2)-----|-2----2-(2)-----|


  Q.   E E Q.     Q.   E E Q.     Q.   E E Q.
|---------------|---------------|----------------|
|--------4-2----|--------4-2----|--------4-2-----|
|---------------|---------------|----------------|
|-2-------------|-2-------------|-2--------------|


  Q.   E E Q.     Q.   E E Q.     Q.   E E Q.
|---------------|---------------|---------------|
|--------4-2----|--------4-2----|--------4-2----|
|---------------|---------------|---------------|
|-2-------------|-2-------------|-2-------------|


  Q.   E E Q.     Q.   E E Q.
|---------------|----------------||
|--------4-2----|--------4-2-----||
|---------------|----------------||
|-2-------------|-2--------------||


   1st Verse
    Q.   E E Q.     Q.   E E Q.     Q.   E E Q.     Q.   E E Q.
||----------------|---------------|---------------|----------------||
||o--------4-2----|--------4-2----|--------4-2----|--------4-2----o||
||o---------------|---------------|---------------|---------------o||
||--2-------------|-2-------------|-2-------------|-2--------------||


  E E Q  H      E E Q  H      E E Q  H      W
|-------------|-------------|-------------|------|
|-------------|-------------|-------------|------|
|-------------|-------------|-2-----------|------|
|-2-----------|-2-----------|-------------|------|


  Q.   E E Q.     Q.   E E Q.     Q.   E E Q.     Q.   E E Q.
|---------------|---------------|---------------|----------------||
|--------4-2----|--------4-2----|--------4-2----|--------4-2-----||
|---------------|---------------|---------------|----------------||
|-2-------------|-2-------------|-2-------------|-2--------------||


 Interlude
  Q.   E E Q.     Q.   E E Q.     Q.   E E Q.     Q.   E E Q.
|---------------|---------------|---------------|---------------||
|--------5-3----|--------5-3----|--------5-3----|--------5-3----||
|---------------|---------------|---------------|---------------||
|-3-------------|-3-------------|-3-------------|-3-------------||


   2nd Verse
    Q.   E E Q.     Q.   E E Q.     Q.   E E Q.     Q.   E E Q.
||----------------|---------------|---------------|-----------------||
||o--------5-3----|--------5-3----|--------5-3----|--------5-3-----o||
||o---------------|---------------|---------------|----------------o||
||--3-------------|-3-------------|-3-------------|-3---------------||


  E E Q  H      E E Q  H      E E Q  H      W
|-------------|-------------|-------------|------|
|-------------|-------------|-------------|------|
|-------------|-------------|-3-----------|------|
|-3-----------|-3-----------|-------------|------|


  Q.   E E Q.     Q.   E E Q.     Q.   E E Q.     Q.   E E Q.
|---------------|---------------|---------------|---------------||
|--------5-3----|--------5-3----|--------5-3----|--------5-3----||
|---------------|---------------|---------------|---------------||
|-3-------------|-3-------------|-3-------------|-3-------------||


 Interlude
  Q.   E E Q.     Q.   E E Q.     Q.   E E Q.     Q.   E E Q.
|---------------|---------------|---------------|---------------||
|--------6-4----|--------6-4----|--------6-4----|--------6-4----||
|---------------|---------------|---------------|---------------||
|-4-------------|-4-------------|-4-------------|-4-------------||


   3rd Verse
    Q.   E E Q.     Q.   E E Q.     Q.   E E Q.     Q.   E E Q.
||----------------|---------------|---------------|-----------------||
||o--------6-4----|--------6-4----|--------6-4----|--------6-4-----o||
||o---------------|---------------|---------------|----------------o||
||--4-------------|-4-------------|-4-------------|-4---------------||


  E E Q  H      E E Q  H      E E Q  H      W
|-------------|-------------|-------------|------|
|-------------|-------------|-------------|------|
|-------------|-------------|-4-----------|------|
|-4-----------|-4-----------|-------------|------|


  Q.   E E Q.     Q.   E E Q.     Q.   E E Q.     Q.   E E Q.
|---------------|---------------|---------------|---------------||
|--------6-4----|--------6-4----|--------6-4----|--------6-4----||
|---------------|---------------|---------------|---------------||
|-4-------------|-4-------------|-4-------------|-4-------------||


 Interlude
  Q.   E E Q.     Q.   E E Q.     Q.   E E Q.     Q.   E E Q.
|---------------|---------------|---------------|---------------||
|--------7-5----|--------7-5----|--------7-5----|--------7-5----||
|---------------|---------------|---------------|---------------||
|-5-------------|-5-------------|-5-------------|-5-------------||


   4th Verse
    Q.   E E Q.     Q.   E E Q.     Q.   E E Q.     Q.   E E Q.
||----------------|---------------|---------------|-----------------||
||o--------7-5----|--------7-5----|--------7-5----|--------7-5-----o||
||o---------------|---------------|---------------|----------------o||
||--5-------------|-5-------------|-5-------------|-5---------------||


  E E Q  H      E E Q  H      E E Q  H      W
|-------------|-------------|-------------|------||
|-------------|-------------|-------------|------||
|-------------|-------------|-5-----------|------||
|-5-----------|-5-----------|-------------|------||


 Outro
  Q.   E E Q.     Q.   E E Q.     Q.   E E Q.     Q.   E E Q.
|---------------|---------------|---------------|---------------|
|--------7-5----|--------7-5----|--------7-5----|--------7-5----|
|---------------|---------------|---------------|---------------|
|-5-------------|-5-------------|-5-------------|-5-------------|


  Q.   E E Q.     Q.   E E Q.     q  E E +H       q  E E +H
|---------------|---------------|---------------|---------------|
|--------7-5----|--------7-5----|---------------|---------------|
|---------------|---------------|---------------|---------------|
|-5-------------|-5-------------|-5----5-(5)----|-5----5-(5)----|


  E E E E E E E E   E E E E E E E E   q  Q  H
|-----------------|-----------------|------------*|
|-----------------|-----------------|------------*|
|-----------------|-----------------|------------*|
|-5-5-5-5-5-5-5-5-|-5-5-5-5-5-5-5-5-|-5----------*|            
Submit corrections


        Parchman Farm  lessons Hard to play? Try these video lessons and learn fast Parchman Farm  lessons
        
↑ Back to top | Tablatures and chords for acoustic guitar and electric guitar, ukulele, drums are parodies/interpretations of the original songs. You may use it for private study, scholarship, research or language learning purposes only