Home » J » Johnny Rzeznik »

Johnny Rzeznik - Im Still Here Bass

Artists:  A B C D E F G H I J K L M N O P Q R S T U V W X Y Z # 

Im Still Here Bass

(ver. 1) Click to play this song!
Johnny Rzeznik
 Rating:
4/5 (4 votes)
                (0:35)  
G |----------------|
D |----------------|
A |--------5--7----|
E |--7--7----------|

G |--------------------------------------|
D |---------7--7--5----------------------|
A |-----3/7----------7--------5--5--7----|
E |--5------------------5--5-------------|

G |-----------------------------------|
D |---------7--7--5-------------------|
A |-----3/7----------7--------5--7----|
E |--5------------------7--7----------|

G |--------------------------------------|
D |---------7--7--5----------------------|
A |-----3/7----------7--------5--5--7----|
E |--5------------------5--5-------------|

G |--------------------------------------|
D |---------7--7--5----------------------|
A |-----3/7----------7--------5--5--7----|
E |--5------------------5--5-------------|

G |-----------------------------------|
D |---------7--7--5-------------------|
A |-----3/7----------7--------5--7----|
E |--5------------------7--7----------|

G |--------------------------------------|
D |---------7--7--5----------------------|
A |-----3/7----------7--------5--5--7----|
E |--5------------------5--5-------------|


G |-------------------------------------------------------|
D |---------7--7--5--------------12--12-11----12-11-------|
A |-----3/7----------7--9--7--5------------12-------12----|
E |--5----------------------------------------------------|

G |--------------------------------------|
D |---------7--7--5----------------------|
A |-----3/7----------7--------5--5--7----|
E |--5------------------5--5-------------|

G |-----------------------------------|
D |---------7--7--5-------------------|
A |-----3/7----------7--------5--7----|
E |--5------------------7--7----------|

G |--------------------------------------|
D |---------7--7--5----------------------|
A |-----3/7----------7--------5--5--7----|
E |--5------------------5--5-------------|


G |-------------------------------------------------------|
D |---------7--7--5--------------12--12-11----12-11-------|
A |-----3/7----------7--9--7--5------------12-------12----|
E |--5----------------------------------------------------|


G |--------------------------------------|
D |---------7--7--5----------------------|
A |-----3/7----------7--------5--5--7----|
E |--5------------------5--5-------------|

G |-----------------------------------|
D |---------7--7--5-------------------|
A |-----3/7----------7--------5--7----|
E |--5------------------7--7----------|

G |--------------------------------------|
D |---------7--7--5----------------------|
A |-----3/7----------7--------5--5--7----|
E |--5------------------5--5-------------|


G |-------------------------------------------------------|
D |---------7--7--5--------------12--12-11----12-11-------|
A |-----3/7----------7--9--7--5------------12-------12----|
E |--5----------------------------------------------------|

G |--------------------------------------|
D |---------7--7--5----------------------|
A |-----3/7----------7--------5--5--7----|
E |--5------------------5--5-------------|

G |-----------------------------------|
D |---------7--7--5-------------------|
A |-----3/7----------7--------5--7----|
E |--5------------------7--7----------|

G |--------------------------------------|
D |---------7--7--5----------------------|
A |-----3/7----------7--------5--5--7----|
E |--5------------------5--5-------------|


G |-------------------------------------------------------|
D |---------7--7--5--------------12--12-11----12-11-------|
A |-----3/7----------7--9--7--5------------12-------12----|
E |--5----------------------------------------------------|

G |------------------------------------------|
D |---------------------12-11----12-11-------|
A |--5--5-5-7--7-7-9--9-------12-------12----|
E |------------------------------------------|

G |------------------------------------------|
D |---------------------12-11----12-11-------|
A |--5--5-5-7--7-7-9--9-------12-------12----|
E |------------------------------------------|

G |------------------------------------------|
D |---------------------12-11----12-11-------|
A |--5--5-5-7--7-7-9--9-------12-------12----|
E |------------------------------------------|

G |------------------------------------------------------------------|
D |------------------------12-12-11----12-11----12-11----12-11-------|
A |--5--5-5-7--7-7-9--7--5----------12-------12-------12-------12----|
E |------------------------------------------------------------------|

G |--------------------------------------|
D |---------7--7--5----------------------|
A |-----3/7----------7--------5--5--7----|
E |--5------------------5--5-------------|

G |-----------------------------------|
D |---------7--7--5-------------------|
A |-----3/7----------7--------5--7----|
E |--5------------------7--7----------|

G |--------------------------------------|
D |---------7--7--5----------------------|
A |-----3/7----------7--------5--5--7----|
E |--5------------------5--5-------------|


G |----------------------------------------------------------|
D |---------7--7--5--------------12--12-11----12-11----12----|
A |-----3/7----------7--9--7--5------------12-------12-------|
E |--5-------------------------------------------------------|

G |----------------------------------------|
D |----------------------------------------|
A |--9--7-----9--7-----9--7-----9--7-------|
E |--------5--------5--------5--------5----|
            
Submit corrections

↑ Back to top | Tablatures and chords for acoustic guitar and electric guitar, ukulele, drums are parodies/interpretations of the original songs. You may use it for private study, scholarship, research or language learning purposes only