Home » J » John Michael Montgomery »

John Michael Montgomery - I Swear Tabs

Artists:  A B C D E F G H I J K L M N O P Q R S T U V W X Y Z # 

I Swear Tabs

(ver. 1) Click to play this song!
John Michael Montgomery
John Michael Montgomery  -  I Swear (solo)



*****************************************************************************************

/   =   slide up                                            ~   =   hold note

h   =   hammer-on                                           \   =   slide down

p   =   pulloff                                             b   =   bend

x   =   dead note                                           bh  =   bend & hold

r   =   release bend                                        pbr =   pre-bend & release

*****************************************************************************************



E--------------------------------------------------------------------------11h13-
B---7/9-9~~\-6h7-7h9-7-6-------------------------------------------------14------
G-----------------------8/10~10\8p6--------------------------------10b-13--------
D--6-------------------------------8/10-6-6h8-6\-3-4-6-6/8-6\/11-11--------------
A--------------------------------------------8-----------------------------------
E--------------------------------------------------------------------------------

      rake
E--14---16-14-13------------------11--------------------16/18-18-18pbr-16-16~~-|
B------x--------16bh-16r-p14-11/13--13\11p9--9\-------14-----------------------|
G-----x------------------------------------10----13/15-------------------------|
D------------------------------------------------------------------------------|
A------------------------------------------------------------------------------|
E------------------------------------------------------------------------------|


            
Submit corrections

↑ Back to top | Tablatures and chords for acoustic guitar and electric guitar, ukulele, drums are parodies/interpretations of the original songs. You may use it for private study, scholarship, research or language learning purposes only