» » »

John Mayall And The Bluesbreakers - Steppin Out Tabs

Artists:  A B C D E F G H I J K L M N O P Q R S T U V W X Y Z # 

Steppin Out Tabs

(ver. 3) Click to play this song!
John Mayall And The Bluesbreakers
 Rating:
4/5 (4 votes)

 Steppin Out lessons Tabs too difficult? Try these video lessons and learn fast
 
                Tuning: EADGBe

~180bpm swung
 
 G7                                               D7
E|---------|--------|-----------|----------------|--------|--------|------------|
B|---------|--------|-----------|----------------|--------|--------|------------|
G|---3---3-|5-3-5b7-|5-3-5-3----|----------------|--------|--------|------------|
D|-5---5---|--------|--------5-3|-5-5-0-3-0-3-5-5|---3---3|-5-3-5b7|-5-3-5-3----|
A|---------|--------|-----------|----------------|-5---5--|--------|---------5-3|
E|---------|--------|-----------|----------------|--------|--------|------------|

                    G7
E|-----------------|--------|--------|-----------|------------------|
B|-----------------|--------|--------|-----------|------------------|
G|-----------------|---3---3|-5-3-5b7|-5-3-5-3---|------------------|
D|-----------------|-5---5--|--------|---------5-|-3-5-5-0-3-0-3-5-5|
A|-5-5-0-3-0-3-5-5-|--------|--------|-----------|------------------|
E|-----------------|--------|--------|-----------|------------------|

  G7                                        C7     G7                   D7     
E|--------|-----------|----------|--------|---|---|----------|---------|----------|
B|--------|---\3---3--|----------|--------|---|---|-13b15-11b|--11pbr13|-8----8-11|
G|---3-5b7|~~----5---5|-3-----3b-|-10b12~~|~~~|~~~|----------|---------|---10-----|
D|-5------|-----------|---5-5----|--------|---|---|----------|---------|----------|
A|--------|-----------|----------|--------|---|---|----------|---------|----------|
E|--------|-----------|----------|--------|---|---|----------|---------|----------|
  
  C7     G7                           G7
E|------|-------------------|-------3|-------------------|----------------|--------|
B|-----8|------------------3|-----3--|3h6p3--------------|-/6-6-6-6-------|--------|
G|-10b--|-\3----3----3-5b7--|-5b7----|------5-3-5p3------|-/7-------7\5p3-|------3b|
D|------|-----5---5b--------|--------|--------------5-3-5|----------------|5-3-5---|
A|------|-------------------|--------|-------------------|----------------|--------|
-|------|-------------------|--------|-------------------|----------------|--------|
            
                    C7                             G7
E|-----------------|-------10----|----------------|--------|---------------|
B|-------------8-8b|-10b12----8~-|-11b13-11-8h10p8|----8---|10b12-10-8-10\-|
G|-----------------|-------------|----------------|-10---10|---------------|
D|-----------------|-------------|----------------|--------|---------------|
A|-5p3---3-1-------|-------------|----------------|--------|---------------|
E|-----5-----------|-------------|----------------|--------|---------------|
   
  D7              C7              G7                             
E|-10p8----8-----|---------------|-------13--------------------|----------------|
B|------11---8-11|-13b15-11----11|-13b15----13p11-----------11b|-15p13----13-11b|
G|---------------|----------12---|----------------12-10-12-----|-------15-------|
D|---------------|---------------|-----------------------------|----------------|
A|---------------|---------------|-----------------------------|----------------|
E|---------------|---------------|-----------------------------|----------------|
   
  G7
E|-------------------|-----------------------|-----3--------------|
B|-------------------|-----------------------|---3----------------|
G|-5br7p3-5-3--------|--------3-5-5br7p3-5-3-|5b-----3-------3b---|
D|------------5-3-5-5|----3-5----------------|---------5-3-5------|
A|-------------------|--5--------------------|--------------------|
E|-------------------|-----------------------|--------------------|
   
            C7                                          G7
                                       rake              rake
E|---------|--------------------------|-3--------------|-3---------------|
B|--3-6-3--|---3-6-3------------------|--3-------------|--3--------------|
G|5b-------|5b-------5b7-5-3-5p3---5-3|---3---5-3------|---3---5-3-------|
D|---------|---------------------5----|-----5-----5-3-5|-----5-----5-3-5-|
A|---------|--------------------------|----------------|-----------------|
E|---------|--------------------------|----------------|-----------------|
 
                  D7             C7
  rake            rake                        G7
E|3--------------|-3------------|-3----------|--------|-----------------|
B|-3-------------|--3-----------|---6--------|--------|-----------------|
G|--3---5-3------|---3---5-3-5/7|-----7\5-3--|-3------|-----------------|
D|----5-----5-3-5|-----5--------|-----------5|--5-----|-----------------|
A|---------------|--------------|------------|----5p3-|--3---(3)-(3)----|
E|---------------|--------------|------------|--------|6---6--------(6)-|
   
  G7                                  C7                G7
E|--------|--------|--------|--------|--------|--------|-------|--------|
B|--------|--------|--------|--------|--------|--------|-------|--------|
G|--------|--------|--------|--------|---5--3-|---5--3-|-------|--------|
D|---5--3-|---5--3-|---5--3-|---5--3-|--------|--------|---5--3|---5--3-|
A|--------|--------|--------|--------|3-------|3-------|-------|--------|
E|3-------|3-------|3-------|3-------|--------|--------|3------|3-------|
  
  D7       C7       G7
E|--------|--------|--------|--------|
B|--------|--------|--------|--------|
G|---7--5-|---5--3-|--------|--------|
D|--------|--------|---5--3-|---5--3-|
A|5-------|3-------|--------|--------|
E|--------|--------|3-------|3-------|
   
  G7                                        C7
E|--------|--------|----------|------------|---------|----------------|
B|--------|6h8~~~~-|11b--(12)-|13b15-13-11-|13-11~~~-|11b13-pb12-pb13-|
G|5/7~~~~-|--------|----------|------------|---------|----------------|
D|--------|--------|----------|------------|---------|----------------|
A|--------|--------|----------|------------|---------|----------------|
E|--------|--------|----------|------------|---------|----------------|
  
  G7                   D7          C7         g7
E|--------------|-----|-----------|----------|------13---------------|
B|pb12-pb13-pb12|pb13~|-----11-13-|13b15-11~-|13b15----br15p11-13p11-|
G|--------------|-----|12~~-------|----------|-----------------------|
D|--------------|-----|-----------|----------|-----------------------|
A|--------------|-----|-----------|----------|-----------------------|
E|--------------|-----|-----------|----------|-----------------------|
   
                G7
E|-------------|15-----15-------|-------15----------------------|
B|---------11~-|18b20-----18-15-|-18-b20----18-15---------------|
G|12-10-12-----|----------------|----------------17b19-17-15----|
D|-------------|----------------|----------------------------17-|
A|-------------|----------------|-------------------------------|
E|-------------|----------------|-------------------------------|
                                                      C7
E|------------------------------|--------------------|18b20-pb19-b20-|
B|---------------15-------------|--------------------|---------------|
G|17----15-17b19----17p15----17-|17pbr19p15-------15-|---------------|
D|---17-------------------17----|-----------17-17----|---------------|
A|------------------------------|--------------------|---------------|
E|------------------------------|--------------------|---------------|
  
                  G7
E|pb19-b20-18~-15|-----------------------------------|----------------------------|
B|---------------|18-15----------------------15h18p15|----------------------------|
G|---------------|------17pb19p15-17p15-17b9---------|-15-17br19p15----15h16------|
D|---------------|-----------------------------------|--------------17-------17---|
A|---------------|-----------------------------------|--------------------------17|
E|---------------|-----------------------------------|----------------------------|
  
  D7       C7       G7
E|--------|--------|---------------------|--------------------|
B|15b17r16|b17-15~-|12-15--17b19-17-15---|-15-----------------|
G|--------|--------|-------------------17|----15h16-----------|
D|--------|--------|---------------------|----------17-15-17--|
A|--------|--------|---------------------|--------------------|
E|--------|--------|---------------------|--------------------|
   
  G7                                 
E|------15-15--------15|-------15-------15------|------------------|---------------------|
B|18b20--------18b20---|-18b20----18b20----18-15|----------------15|---------------------|
G|---------------------|------------------------|-17b19-17-15-17---|-15-17-15--------15b-|
D|---------------------|------------------------|------------------|----------17--17-----|
A|---------------------|------------------------|------------------|---------------------|
E|---------------------|------------------------|------------------|---------------------|
   
  C7                        G7
E|--------|----------------|-10b12-10-8-------------|------10--------|
B|--8-8-8-|-10b11-r10-8~~~-|------------11-8-10---8-|10b12----10b12~~-|
G|9-------|----------------|--------------------9---|-----------------|
D|--------|----------------|------------------------|-----------------|
A|--------|----------------|------------------------|-----------------|
E|--------|----------------|------------------------|-----------------|
  
  D7               C7          G7
E|----------------|-----------|----------------|
B|10br11-8-10---8-|-10-10b12--|----------------|
G|------------9---|-----------|---3---3b-------|
D|----------------|-----------|-5---5----5-3-5-|
A|----------------|-----------|----------------|
E|----------------|-----------|----------------|

  G7                                               D7
E|---------|--------|-----------|----------------|--------|--------|------------|
B|---------|--------|-----------|----------------|--------|--------|------------|
G|---3---3-|5-3-5b7-|5-3-5-3----|----------------|--------|--------|------------|
D|-5---5---|--------|--------5-3|-5-5-0-3-0-3-5-5|---3---3|-5-3-5b7|-5-3-5-3----|
A|---------|--------|-----------|----------------|-5---5--|--------|---------5-3|
E|---------|--------|-----------|----------------|--------|--------|------------|

                    G7
E|-----------------|--------|--------|-----------|----------------|
B|-----------------|--------|--------|-----------|----------------|
G|-----------------|---3---3|-5-3-5b7|-5-3-5-3---|----------------|
D|-----------------|-5---5--|--------|---------5-|-3-5-5-0-3-0-3-5|
A|-5-5-0-3-0-3-5-5-|--------|--------|-----------|----------------|
E|-----------------|--------|--------|-----------|----------------|
  
  Bdim
E|-----------|----------|------------|
B|-----------|----------|------------|
G|4----------|(4)-------|(4)---------|
D|3----------|(3)-------|(3)---------|
A|2----------|(2)-------|(2)---------|
E|-----------|----------|------------|
  
            
Submit corrections


        Steppin Out lessons Hard to play? Try these video lessons and learn fast Steppin Out lessons
        
↑ Back to top | Tablatures and chords for acoustic guitar and electric guitar, ukulele, drums are parodies/interpretations of the original songs. You may use it for private study, scholarship, research or language learning purposes only