» » »

John Mayall And The Bluesbreakers - Hideaway Tabs

Artists:  A B C D E F G H I J K L M N O P Q R S T U V W X Y Z # 

Hideaway Tabs

(ver. 2) Click to play this song!
John Mayall And The Bluesbreakers
 Rating:
2.3/5 (22 votes)

 Hideaway lessons Tabs too difficult? Try these video lessons and learn fast
 
                Tuning: EADGBe

Swung Feel

  E7                                                                 A7
E|--------------|--------------|---------------|--------------------|---------|
B|--------------|--------------|---------------|--------------------|---------|
G|-------9-11b13|-------9-11b13|--11-9----9b-11|-----9------9------9|------9-9|
D|9-9h11--------|9-9h11--------|-------11------|9h11---9h11---9h11--|-9h11----|
A|--------------|--------------|---------------|--------------------|---------|
E|--------------|--------------|---------------|--------------------|---------|

                 E7                  B7                          A7
E|--------------|-----------|-------|------0-2-2-2-2-2h4-2-0----|----0-----0-----0-----------|
B|--------------|-----------|-------|2-0h2-------------------2-0|0h2---0h2---0h2-------------|
G|-------9-11b13|-11-9----9b|---8\7~|---------------------------|------------------4-2-3-0tr1|
D|9-9h11--------|------11---|---7\6~|---------------------------|----------------------------|
A|--------------|-----------|---8\7~|---------------------------|----------------------------|
E|--------------|-----------|-------|---------------------------|----------------------------|

  E7                    E7                                            A7 
E|------------|0-------|----------------|--------|--------|----------|---------------|---------|
B|5-3---------|0---3-0-|0---------------|---3-3-3|-3-3-3-3|-3-3-3-3-3|---------------|---------|
G|----4--2-0--|--4-----|--2-0h1------0h1|/4-4-4-4|-4-4-4-4|-4-4-4-4-4|2-0-2br4p0-2-0-|-2-2-0---|
D|-----------2|--------|---------2-2----|--------|--------|----------|---------------|---------|
A|------------|--------|----------------|--------|--------|----------|---------------|---------|
E|------------|--------|----------------|--------|--------|----------|---------------|---------|

  E7                              B7                        A7
E|-----------------|-------------|-------------------------|------------------------|
B|-----------------|-------------|/3-3-3-3-3-/3-3-3-3-3-3-3|-3-3-3-3-3-3-3-3-3-3-3-3|
G|9~--9~~-11--11b13|-11-9-11b13--|/4-4-4-4-4-/4-4-4-4-4-4-4|-4-4-4-4-4-4-4-4-4-4-4-4|
D|-----------------|-------------|-------------------------|------------------------|
A|-----------------|-------------|-------------------------|------------------------|
E|-----------------|-------------|-------------------------|------------------------|

  E7
E|---------------------------|------------------|
B|3-3-3-3-3-3-5~~-3---3------|-------5~-3-------|
G|4-4-4-4-4-4-------4---2p0--|-0----------4~----|
D|--------------------------2|---2--------------|
A|---------------------------|-----2------------|
E|---------------------------|---------------7\0|

Shuffle feel 
  E7                                        A7                   E7
E|------|-------------|------|-------------|------|-------------|------|-------------|
B|------|-------------|------|-------------|------|-------------|------|-------------|
G|------|-------------|------|-------------|------|-------------|------|-------------|
D|------|----------1/2|------|----------1/2|------|2-5-2-4-2-1/2|------|----------1/2|
A|------|2-5-2-4-2----|------|2-5-2-4-2----|0---4-|-------------|------|2-5-2-4-2----|
E|0---4-|-------------|0---4-|-------------|------|-------------|0---4-|-------------|

  B7     A7            E7        
E|------|-------------|------|---------|
B|------|-------------|------|---------|
G|------|-------------|------|---------|
D|------|4-7-4-6-4-1/2|------|---------|
A|2---4-|-------------|------|2-5-2-4-2|
E|------|-------------|0---4-|---------|

Swung Feel
  E7
E|---------12-|---------12------------------------|--------|-------------------|
B|12----12----|------12----12---------------------|--------|14----14-----14----|
G|14b16-------|14b16----------14br16p12----14-12--|------12|14b16-14pb16-14-12~|
D|------------|-------------------------14--------|14~~----|-------------------|
A|------------|-----------------------------------|--------|-------------------|
E|------------|-----------------------------------|--------|-------------------|

  A7                                         E7
E|-------------------|----------------------|----------------------|
B|14----14-----14----|14----14-----14-14-12b|14----14-----14-14-12b|
G|14b16-14pb16-14-12~|14b16-14pb16-14-14-12b|14b16-14pb16-14-14-12b|
D|-------------------|----------------------|----------------------|
A|-------------------|----------------------|----------------------|
E|-------------------|----------------------|----------------------|
  
                                            B7              A7
E|---------12-------------12---------------|---------------|12----------------------|
B|------12----15-12-15b17----15-12-15b17~~~|15-12----12----|---15-12----------------|
G|14b16------------------------------------|------14----12b|---------14br16p12-14-12|
D|-----------------------------------------|---------------|------------------------|
A|-----------------------------------------|---------------|------------------------|
E|-----------------------------------------|---------------|------------------------|

  E7
E|---------12-------------|------------------|
B|------12----15-12-------|------------------|
G|12h13-------------14br16|-12----14-12------|
D|------------------------|----14------------|
A|------------------------|-------------14-14|
E|------------------------|------------------|

  E7
E|/12-12-12-12\|/12-12-12-12\|-9-7-4-2/4\2-0--2/4-2-0|4\2-0------------------|
B|/-9--9--9--9\|/-9--9--9--9\|-----------------------|-----------------------|
G|/11-11-11-11\|/11-11-11-11\|-9-7-4-2/4\2-1--2/4-2-1|4\2-0h1-2br4p0-2-0-2~-0|
D|-------------|-------------|-----------------------|-----------------------|
A|-------------|-------------|-----------------------|-----------------------|
E|-------------|-------------|-----------------------|-----------------------|

  A7                                                 E7
E|-----7-5-------7-5-------|------------------------|-------------------|
B|---5-----7/8-7-----7br8-5|----5-7b8-7pb8-7pb8-7pb8|7pb9-7pb9-7pb9-7pb9|
G|/7-----------------------|-/6---------------------|-------------------|
D|-------------------------|------------------------|-------------------|
A|-------------------------|------------------------|-------------------|
E|-------------------------|------------------------|-------------------|

                                     B7                   A7
E|----------------------------------|--------------------|------------------|
B|7b8-7pb8-7pb8-7pb8-7pb8-7br8p5---5|--------------------|------------------|
G|-------------------------------6--|11br13p9----11----9~|14b16-14-12-14-12~|
D|----------------------------------|---------11----11---|------------------|
A|----------------------------------|--------------------|------------------|
E|----------------------------------|--------------------|------------------|

  E7
E|------------------------------|---------------|
B|------------------------------|---------------|
G|------------------------------|---------------|
D|14p12-14--12----------12------|12/14-12-------|
A|-------------12/14-12----10---|---------14-14~|
E|----------------------------12|---------------|

Straight feel
  E7
E|-------------------|-------------------|-------------------|-------------------|
B|-------------------|-------------------|-------------------|-------------------|
G|-------------------|-------------------|-------------------|-------------------|
D|----------------2--|----------------2--|----------------2--|----------------2--|
A|--------2-2-2-4---4|--------2-2-2-4---4|--------2-2-2-4---4|--------2-2-2-4---4|
E|0-0-4-4------------|0-0-4-4------------|0-0-4-4------------|0-0-4-4------------|

  A7                                       E7
E|-------------------|-------------------|-------------------|-------------------|
B|-------------------|-------------------|-------------------|-------------------|
G|----------------2--|----------------2--|-------------------|-------------------|
D|--------2-2-2-4---4|---------2-2-2-4--4|----------------2--|----------------2--|
A|0-0-4-4------------|-0-0-4-4-----------|--------2-2-2-4---4|--------2-2-2-4---4|
E|-------------------|-------------------|0-0-4-4------------|0-0-4-4------------|

  B7                  A7                  E7
E|-------------------|-------------------|-------------------|----------|
B|-------------------|-------------------|-------------------|----------|
G|----------------2--|----------------2--|-------------------|----------|
D|--------4-4-4-6---6|--------2-2-2-4---4|----------------2--|2-0-------|
A|2-2-6-6------------|0-0-4-4------------|--------2-2-2-4---4|----2-2~--|
E|-------------------|-------------------|0-0-4-4------------|----------|

Swung Feel
  E7
E|12----12---~~-|12----12-------------------------------|-------------------|
B|15b17-15b17~~-|15b17----15-12----12-------------------|15br17----15br17---|
G|--------------|---------------14----12h14-12-------12b|-------12--------12|
D|--------------|------------------------------14-14----|-------------------|
A|--------------|---------------------------------------|-------------------|
E|--------------|---------------------------------------|-------------------|

E|-----------------------------|---------------------------------|---------------------|
B|------------14-12-------14-12|---------------------------------|15-------------------|
G|12~~~-12~~~-14-12-14-12-14-12|14-12-14--12-14-14-12-14-12-14-12|---14br16-12-14----12|
D|-----------------------------|---------------------------------|----------------14---|
A|-----------------------------|---------------------------------|---------------------|
E|-----------------------------|---------------------------------|---------------------|

                    B7                              A7                       E7
E|---------12------|17b19-15~----------------------|-------------12---------|------------------|
B|------12---------|-----------15-17-15------------|----------12------------|------------------|
G|14b16-------14p12|--------------------14/16-14-12|----14b16------14br16p12|-14-12------------|
D|-----------------|-------------------------------|-14---------------------|-------14-12-14-14|
A|-----------------|-------------------------------|------------------------|------------------|
E|-----------------|-------------------------------|------------------------|------------------|

E|------15-15-15---------15-----------|
B|18b20----------18pbr20--------------|
G|---------------------------14-12----|
D|---------------------------------14~|
A|------------------------------------|
E|------------------------------------|

  E7
E|---------------------------------|------------12\|------------------------------------|
B|/12-12-12-12-12-12-12-12-12-12-12|------------12\|/12-12-12-12-12-12-12-12-12-12-12-12|
G|/13-13-13-13-13-13-13-13-13-13-13|-11b13-9-9~~---|/13-13-13-13-13-13-13-13-13-13-13-13|
D|---------------------------------|---------------|------------------------------------|
A|---------------------------------|---------------|------------------------------------|
E|---------------------------------|---------------|------------------------------------|

                                A7
E|-----------------------------|---------------|-------------------------------|
B|12----12----12----12----12h15|15b17~~~~----12|15b17~~~---15-12-------12------|
G|14b16-14b16-14b16-14b16------|---------------|-----------------14-12----12---|
D|-----------------------------|---------------|-----------------------------14|
A|-----------------------------|---------------|-------------------------------|
E|-----------------------------|---------------|-------------------------------|

  E7                                            B7
E|---------12-15b17-15-12-|---------12-------12|------12-15b17------------------|
B|------------------------|------12------------|12-15----------15-12----12------|
G|---12h13----------------|14b16-------12h13---|---------------------14----12---|
D|14----------------------|--------------------|------------------------------14|
A|------------------------|--------------------|--------------------------------|
E|------------------------|--------------------|--------------------------------|

  A7                    E7
E|15b17~~~--15p12----12|-------------------------|-----------------|
B|----------------15---|15-12----------------12b-|-----------------|
G|---------------------|------14b16-14-12----12b-|----12h14--------|
D|---------------------|------------------14-----|14--------x------|
A|---------------------|-------------------------|------------14-14|
E|---------------------|-------------------------|-----------------|

  E7                                                 A7
E|---------12|-14b16~|---------12-14b16|-12-------12|17b19~~--17-15-17p15-------15b|
B|12-12h14---|-------|12-12h14---------|----14-14---|---------------------17-17----|
G|-----------|-------|-----------------|------------|------------------------------|
D|-----------|-------|-----------------|------------|------------------------------|
A|-----------|-------|-----------------|------------|------------------------------|
E|-----------|-------|-----------------|------------|------------------------------|

                            E7                                                    
E|15b17-15~~-12------------|---------------------------|---------12-14b16-14-12------------|
B|--------------15-12------|---------------------------|12-12h14----------------14-12------|
G|--------------------14b16|-14-12----12-12h14-12------|------------------------------12---|
D|-------------------------|-------14------------------|---------------------------------14|
A|-------------------------|----------------------14-14|-----------------------------------|
E|-------------------------|---------------------------|-----------------------------------|

 B7                      A7                      E7
E|----------------------|-----------------------|---------12-------12-------12-14b16|
B|----------------------|15b17-12-------12------|12-12h14----12h14----12h14---------|
G|14br16p12-14-12-------|---------14-12----12---|-----------------------------------|
D|----------------------|---------------------14|-----------------------------------|
A|----------------14--12|-----------------------|-----------------------------------|
E|----------------------|-----------------------|-----------------------------------|

E|---------|
B|---------|
G|8\7~~~~~~|
D|7\6~~~~~~|
A|8\7~~~~~~|
E|---------|            
Submit corrections


        Hideaway lessons Hard to play? Try these video lessons and learn fast Hideaway lessons
        
↑ Back to top | Tablatures and chords for acoustic guitar and electric guitar, ukulele, drums are parodies/interpretations of the original songs. You may use it for private study, scholarship, research or language learning purposes only