» » »

John Mayall And The Bluesbreakers - Double Crossing Time Tabs

Artists:  A B C D E F G H I J K L M N O P Q R S T U V W X Y Z # 

Double Crossing Time Tabs

(ver. 2) Click to play this song!
John Mayall And The Bluesbreakers
 Rating:
2.6/5 (23 votes)

 Double Crossing Time lessons Tabs too difficult? Try these video lessons and learn fast
 
                Tuning: EADGBe

Piano intro
  
  D7                    C7                G7
E|---------------------|-----------------|------|-----|
B|---------------------|-----------------|---3-3|-----|
G|---------------------|-----------------|/4----|-----|
D|---------------------|----------3---3--|------|--5~~|
A|3--1h3--1h3--1h3--1h3|1----1b-5---5---5|------|-----|
E|---------------------|--3--------------|------|3----|

G7
It's a mean old scene
When it comes to Double Crossing Time
C7
It's a mean old scene
                                 G7
When it comes to Double Crossing Time
D7                                 C7
When you think you got good buddies
                                    G7
They will spin around and cheat you blind

Rhythm playing essentially follows this, with some variation

  G7                                                            C7                       G7
E|-----------------------|----------|--------------|----------|-------------|----------|--------------|--------|
B|-----------------------|----------|--------------|----------|-------------|----------|--------------|--------|
G|-----------------------|----------|--------------|----------|-------------|----------|--------------|--------|
D|-----------------------|-------5~~|------3-------|-------5~~|---3---------|-------5~~|------3-------|----3h5~|
A|------------3---3/5\3~~|----------|---5----3/5---|----------|5-----3/5\3~~|----------|---5----3/5---|--------|
E|--------6-6---6--------|6--3------|------------3~|6--3------|-------------|6--3------|------------3~|6-3-----|

  D7              C7         G7
E|---------------|----------|-------------------|-----------------------------|
B|---------------|----------|-------------------|-----------------------------|
G|---------------|----------|-------------------|-----------------------------|
D|------3--------|-------5~~|-----3-------------|----------------------------5|
A|---5----3/5\3~~|----------|3/5-----3h5-3h5-3h5|3h5-3h5-3h5-3h5-3h5-3h5------|
E|---------------|6--3------|-------------------|------------------------6-3--|

Lead  
  G7                                                  C7
E|------|-----|---------6b|--8br10-------6-----------|------------------|-------------------|
B|------|-----|---8-8~----|8--------8~~--------------|------------------|-------------------|
G|------|-----|/7---------|----------------7--3/5-5~~|---5b7-5b7-5br7p3~|-------------------|
D|------|-----|-----------|--------------------------|------------------|-------------------|
A|------|-----|-----------|--------------------------|------------------|-------------------|
E|------|-----|-----------|--------------------------|------------------|-------------------|

  G7                                                                    D7            C7
E|------3-------3---------------------|--------------------------------|-------------|----------|
B|----3-------3---6p3---3-------------|--------------------------------|-------------|----------|
G|5b7-----5b7---------5---5p3--3-5-3--|----3-------3---3-5/7-3-5---3---|7------------|-----3----|
D|----------------------------5------5|5-3---5-5~----5-----------5---5~|---------3h5~|-------5~~|
A|------------------------------------|--------------------------------|---5~--------|----------|
E|------------------------------------|--------------------------------|-------------|----------|

  G7
E|-------------------3|----------|
B|---------------3-6--|----------|
G|--5br7p3---5b7------|----------|
D|5--------5----------|----------|
A|--------------------|----------|
E|--------------------|----------|

Solo
  G7
E|15----15-----------15-15----15----------------------|---15----15----18b21-18b20-18b20-15---------------------|
B|18b20-18b20--18b20----18b20----18-15----15----------|18----18----18----------------------18-15---------------|
G|-------------------------------------17----15h17-15~|------------------------------------------17b19-17-15---|
D|----------------------------------------------------|------------------------------------------------------17|
A|----------------------------------------------------|--------------------------------------------------------|
E|----------------------------------------------------|--------------------------------------------------------|

                                
E|18b20-15---------------------------------------------------|----------------|
B|---------18-15---------------------------------------------|----------------|
G|---------------17b19-17-15----17----15h17-15----------15~~~|(15)~~~~~~~~~~~~|
D|---------------------------17----17----------17----17------|----------------|
A|------------------------------------------------17---------|----------------|
E|-----------------------------------------------------------|----------------|

  C7                                                                       G7
E|-------------------6b---------|-----------------------------------------|-------------------------|
B|--------8-6/8-8~~------11brb13|11-8-10---8-10-10br12p8---8-10-10br12p8~~|10b12-10br12p8-10p8~~--10|
G|------7-----------------------|--------9---------------9----------------|-------------------------|
D|17\---------------------------|-----------------------------------------|-------------------------|
A|------------------------------|-----------------------------------------|-------------------------|
E|------------------------------|-----------------------------------------|-------------------------|

                                                        D7
E|------------------------------------15----15-18-15-18|18b20-18b20-18b20-18pbr20-15------------------------|
B|------------------------------18b20----18------------|-----------------------------18-15------------------|
G|17b19-17-15-17-15-------15\--------------------------|-----------------------------------18-17-15----17---|
D|------------------17-17------------------------------|--------------------------------------------17----17|
A|-----------------------------------------------------|----------------------------------------------------|
E|-----------------------------------------------------|----------------------------------------------------|

  C7                                                                   G7
E|--------------15-----------15---------------------------------------|------3-------------------------|
B|--------------18b20-18-15--18b20-18-15------------------------------|----3---------------------------|
G|17pbr19p15~~---------------------------19\17----17----15h17-15------|5b7-----3h5p3---5---5br7p3h5p3~~|
D|---------------------------------------------17----17----------17-17|--------------5---5-------------|
A|--------------------------------------------------------------------|--------------------------------|
E|--------------------------------------------------------------------|--------------------------------|

E|-------------------------------|
B|-------------------------------|
G|-------------------------------|
D|-------------------------------|
A|3h5-3h5-3h5-3h5-3h5-3h5-3h5-3h5|
E|-------------------------------|

G7
Double crossing man is mean
He will try to make it so you lose
C7
Double crossing man
                              G7
He will try to make it so you lose
D7
You'll fill your mind with worry
C7                           G7
You know he hurt me with the blues

  G7
E|-------|--------|----------------------|3------------------------------------------------|
B|-------|--------|----3-6---------------|--6-3--------------------------------------------|
G|-------|--------|5b7-----5br7---3-5---3|------5b6-5-3---5p3---3h5p3---3h5-----5/7-3h5~~-3|
D|-------|--------|-------------5-----5--|--------------5-----5-------5-----5-3------------|
A|-------|-----/3~|----------------------|-------------------------------------------------|
E|-------|12\-----|----------------------|-------------------------------------------------|
        
  C7                                  G7
E|----------------|8b10-8b10-6-8-----|8b10-8b10-8b10-8b10-8b10|8pbr10-6h8p6---6---6b|
B|----------------|--------------8~~~|------------------------|-------------8---8---|
G|5b7-3-5---3---3b|------------------|------------------------|---------------------|
D|--------5---5---|------------------|------------------------|---------------------|
A|----------------|------------------|------------------------|---------------------|
E|----------------|------------------|------------------------|---------------------|

  D7                    C7        G7
E|-----------8b10-6----|---------|----------------------------------|-----------------------------------|
B|---6--------------8~~|---------|--6-7-8-10br11p8---8-10b11-8------|-----------------------------------|
G|/7---7~~-------------|---------|7----------------9-----------7-5-7|3b---------------------------------|
D|---------------------|---------|----------------------------------|---5-------------------------------|
A|---------------------|---------|----------------------------------|-----5\3-----------1-------1-------|
E|---------------------|---------|----------------------------------|---------6b--3-1-3---3-1-3---3-1-3~|            
Submit corrections


        Double Crossing Time lessons Hard to play? Try these video lessons and learn fast Double Crossing Time lessons
        
↑ Back to top | Tablatures and chords for acoustic guitar and electric guitar, ukulele, drums are parodies/interpretations of the original songs. You may use it for private study, scholarship, research or language learning purposes only