» » »

John 5 - Sounds Of Impalement Tabs

Artists:  A B C D E F G H I J K L M N O P Q R S T U V W X Y Z # 

Sounds Of Impalement Tabs

(ver. 2) Click to play this song!
John 5
 Rating:
4/5 (4 votes)

 Sounds Of Impalement lessons Tabs too difficult? Try these video lessons and learn fast
 
                This is only part I should have the rest soon.

|--------------------------------------------------------------|
|--------------------------------------------------------------|
|--2------9-9-9-9-9-9--2---9-9-9-9-9-9--2----9-9-9-9-9-9-------|
|--2------9-9-9-9-9-9--2---9-9-9-9-9-9--2----9-9-9-9-9-9-------|
|--2------7-7-7-7-7-7--2---7-7-7-7-7-7--2----7-7-7-7-7-7-------|
|--0--0--0-------------0-0-0------------0--0-0-----------------|

|--------------------------------------------------------------|
|--------------------------------------------------------------|
|-2-------9-9-9-9-9-9-2--9-9-9-9-9-9--2--2---9-9-10-9-9--------|
|-2-------9-9-9-9-9-9-2--9-9-9-9-9-9--2--2---9-9-10-9-9--------|
|-2-------7-7-7-7-7-7-2--7-7-7-7-7-7--2--2---7-7-7--7-7--------|
|-0--0-0--------------0-0----------------0-00------------------|

|--------------------------------------------------------------|
|--------------------------------------------------------------|
|-2-2--9-9-9-9-9-9--2-2--9-9-10-10-9-9-------------------------|
|-2-2--9-9-9-9-9-9--2-2--9-9-10-10-9-9-------------------------|
|-2-2--7-7-7-7-7-7--2-2--7-7-7--7--7-7-------------------------|
|-0-0---------------0-0----------------------------------------|

|121412141214121412141214151214121415--------------------------|
|--------------------------------------------------------------|
|--------------------------------------------------------------|
|--------------------------------------------------------------|
|--------------------------------------------------------------|
|--------------------------------------------------------------|
            
Submit corrections


        Sounds Of Impalement lessons Hard to play? Try these video lessons and learn fast Sounds Of Impalement lessons
        
↑ Back to top | Tablatures and chords for acoustic guitar and electric guitar, ukulele, drums are parodies/interpretations of the original songs. You may use it for private study, scholarship, research or language learning purposes only