Home » J » John 5 »

John 5 - Sounds Of Impalement Tabs

Artists:  A B C D E F G H I J K L M N O P Q R S T U V W X Y Z # 

Sounds Of Impalement Tabs

(ver. 1) Click to play this song!
John 5
 Rating:
4/5 (4 votes)
                                                             4x
|----------------------------------------------|
|.--------------------------------------------.|
|-----99-99-99-99-99-99------------------------|
|.----88-88-88-88-88-88-----------------------.|
|3----77-77-77-77-77-77------------------------|
|1-00------------------------------------------|

|----------------------------------------------|
|.--------------1212-1212-1212-1212-1212-1212--|
|---------------1515-1515-1515-1515-1515-1515--|
|.---------------------------------------------|
|----------------------------------------------|
|-0-13-12--------------------------------------|

|----------------------------------------------|
|---------1212-1212-1515-1515-1212-12-12-----.-|
|---------1515-1515-1717-1717-1515-15-15-------|
|--------------------------------------------.-|
|----------------------------------------------|
|-0-13-12--------------------------------------|
            
Submit corrections

↑ Back to top | Tablatures and chords for acoustic guitar and electric guitar, ukulele, drums are parodies/interpretations of the original songs. You may use it for private study, scholarship, research or language learning purposes only