» » »

John 5 - Goodnight Tabs

Artists:  A B C D E F G H I J K L M N O P Q R S T U V W X Y Z # 

Goodnight Tabs

(ver. 2) Click to play this song!
John 5
 Rating:
4.4/5 (7 votes)

 Goodnight lessons Tabs too difficult? Try these video lessons and learn fast
 
                Tuning: Standard

Now get busy and learn to play this…..

(0:01)
|--5----5------7----7-----5--7-5-----------------------------7-5--|
|----7----7------7----7---7------7-----------------------5h7------|
|------7----7------7---------------7-4-----------------7----------|
|--------------------------------------7---7-5-4---5-7------------|
|------------------------------------------------5----------------|
|-----------------------------------------------------------------|

(0:10)
|------5-------------7----7----9-----9-7--7--5------------------|
|--------5--------5----5----5--5---5------5----8\7-5------------|
|--6-------6-6---6-------6---------------------------6---6-4-2--|
|---------------------------------------------------------------|
|---------------------------------------------------------------|
|---------------------------------------------------------------|

(0:18)
|------------5h7--6--5-7-5------------------5----5------7----7---|
|----------5---------------7------------------7----7------7----7-|
|--2h-4/-6-------------------7-4----------------7----7------7----|
|--------------------------------7-5-4-5-7-----------------------|
|----------------------------------------------------------------|
|----------------------------------------------------------------|

(0:25)
|--5--7-5---------------------------------------------------------|
|--7------7-----------------------5^h7^^-----5--------------------|
|--7--------7-4-----------------7----------6----7-6-5-4---3-3-----|
|---------------7---7-5-4---5-7-------------------------------4-0-|
|-------------------------5---------------------------------------|
|-----------------------------------------------------------------|

(0:34)
|-----------------7-5----------------------5----------------------|
|--3----5-3-5-5h7-----7---------------5h7----7---5---7------------|
|----4--0---------------7-4--------------------6-----------5-7-7--|
|---------------------------7-5-4-5-7------------------7-----7-7--|
|-----------------------------------------------------------------|
|-----------------------------------------------------------------|

(0:42)
|--------------------------------------------------------------------|
|------------------------------5--7----------------------------------|
|--7--7--7-7------------4-6-7-------7/9-—9p7---7--7-7----------------|
|--7--7--7-7------4-5-7-------------5--------9----9-9--------0-2-3-4-|
|--------------5---------------------------------------2-3-4---------|
|--------------------------------------------------------------------|

(0:49)
|-----------------------------------------------------|
|---------5-------------------------------------------|
|--0-2-4----7-------7---------------------------------|
|---------------------7-------------------------------|
|--------------7h9------------------------------------|
|-----------------------------------------------------|
            
Submit corrections


        Goodnight lessons Hard to play? Try these video lessons and learn fast Goodnight lessons
        
↑ Back to top | Tablatures and chords for acoustic guitar and electric guitar, ukulele, drums are parodies/interpretations of the original songs. You may use it for private study, scholarship, research or language learning purposes only