» » »

John 5 - Goodnight Tabs

Artists:  A B C D E F G H I J K L M N O P Q R S T U V W X Y Z # 

Goodnight Tabs

(ver. 1) Click to play this song!
John 5
 Rating:
4/5 (5 votes)

 Goodnight lessons Tabs too difficult? Try these video lessons and learn fast
 
                This is the lead guitar; I don’t know the rhythm guitar for it yet. There were some 
that I didn’t tab so no one could play it as good as I. John 5 forever!!!!


h=hammer-on
p=pull-off
b=bend
/=slide up
\=slide down
(0)=ghost note
~=tremolo
br=bend/release

Part 1:
(0:01)
|--5-----5-----7-----7-----5--7-5----------------------------7-5--|
|----7-----7-----7-----7---7------7----------------------5h7------|
|------7-----7-----7----------------7-4----------------7----------|
|---------------------------------------7--7-5-4---5-7------------|
|------------------------------------------------5----------------|
|-----------------------------------------------------------------|

(0:10)
|-----5-------------7-----7----9----9\7--7--5------------------|
|-------5--------5----5-----5--5--5------5----8\7-5-----3------|
|--6------6-6--6--------6---------------------------6-----4-2--|
|--------------------------------------------------------------|
|--------------------------------------------------------------|
|--------------------------------------------------------------|

(0:18)
|------------5h7--6--5-7-5------------------5-----5-----7-----7---|
|----------5---------------7------------------7-----7-----7-----7-|
|--2h-4/-6-------------------7-4----------------7-----7-----7-----|
|--------------------------------7-5-4-5-7------------------------|
|-----------------------------------------------------------------|
|-----------------------------------------------------------------|

(0:25)
|--5--7-5--------------------------------------------------------|
|--7------7-----------------------5h7bb---2-5--3-2-1-0---3-3-----|
|--7--------7-4----------------7-----------------------------4-0-|
|---------------7--7-5-4---5-7-----------------------------------|
|------------------------5---------------------------------------|
|----------------------------------------------------------------|

(0:34)
|-----------------7-5-----------------------5--------------------|
|--3----5-3-5-5h7-----7----------------5h7----7---5---7------3-3-|
|----4--0---------------7-4---------------------6----------5-4-4-|
|---------------------------7-5-4-5-7-------------------7--------|
|----------------------------------------------------------------|
|----------------------------------------------------------------|

(0:42)
|-------------------------------2-----------------------------------|
|--3--3--3-3--------------2-3-5----3h5—-5p3---3--3-3----------------|
|--4--4--4-4----------2-4----------4-—------4----4-4-----------024--|
|-----------------4-5-------------------------------------0234------|
|---------------5-------------------------------------234-----------|
|-------------------------------------------------------------------|

(0:49)
|----------------------------------------------3\2-0h2—-5p2-2-------|
|--5-3--------3-----1-1-1-1----------------3h5----------------3-5~--|
|---------------2-----2-2-2--------0-2-4-5--------------------------|
|-------2h4-------0----------0-2-4----------------------------------|
|-------------------------------------------------------------------|
|-------------------------------------------------------------------|

(0:58)
|--------------------------3-2-0-------------------------------2--|
|--2-3-5-3—-0h1-3-1------3-------3-5-3-------------------2-3-5----|
|--------------------3-4---------------4-------------2-4----------|
|----------------------------------------4-2-0---4-5--------------|
|----------------------------------------------5------------------|
|-----------------------------------------------------------------|

(1:06)
|-----------------------------------------------------0-0---------|
|--3h5--5p3---3--3-3----------------------------------1-1---------|
|--4--------4----4-4-----------024-----2------------0-----0-2(0)--|
|-------------------------0234-------4----5-4-3-2-----------------|
|---------------------234-----------------------------------------|
|-----------------------------------------------------------------|

(1:16)
|--3-3--3-3------------------------------5-5-----2-2--------3--|
|--0-0--0-0-----5-3----------------------1-1-----1-1----0-3----|
|-(0-0—-0-0)--4-----4-0-------------------------------0--------|
|-----------------------2-0---------0---------0----------------|
|---------------------------3-2-3-5---0------------------------|
|--------------------------------------------------------------|

Interlude:
(1:23)
|-----------------------------------------------10-12-10h12p10------|
|-----------------------------------------------10-------------10-7-|
|---------—---------------------------------------------------------|
|--4-5-4-7—--7p5p4-9---7-9-7--\6\5-4-------5-7----------------------|
|------------------------------------5---5--------------------------|
|-------------------------------------------------------------------|

(1:31)
|--14b/9----7—-9/10-7-9b---7-9-7/5----------------------7h9-7----|
|----------------------------------7-5--------------5-6-------7--|
|--------------------------------------6—-6p5p4---6--------------|
|-----------------------------------------------7----------------|
|----------------------------------------------------------------|
|----------------------------------------------------------------|

(1:42)
|-----------------------2-------2----5-7---5-7-5-----------5-3-2--|
|--5-3-----------3----3-------3----3-----7-------7----------------|
|------4-2---------2—(2)----2------2---------------7-4------------|
|----------5-4-5-----(4)--4----------------------------7----------|
|-----------------------------------------------------------------|
|-----------------------------------------------------------------|

(1:50)
|--5-10--15-14-----12-10-----9-7---10---12---14-15—-17/19\17-14--|
|----------------7---------5-------------------------------------|
|----------------------------------------------------------------|
|----------------------------------------------------------------|
|----------------------------------------------------------------|
|----------------------------------------------------------------|

(1:58)                                   (or you can play this)
|--10----------------------------------|-----14-14—-10/12--\10--|
|-----12-10-/7-10--9--9-9-9--8--8-8-8--|--9--13-13—--------\10--|
|--------------------------------------|------------------------|
|--------------------------------------|------------------------|
|--------------------------------------|------------------------|
|--------------------------------------|------------------------|

Part 2:
(2:04)
|------------------2---------------------------------------------|
|------------2-3-5----3h5-—5p3---3--3-3----------------5-3-------|
|--------2-4----------4-—------4----4-4-----------024------------|
|----4-5-------------------------------------0234-----------2h4--|
|--5-------------------------------------234---------------------|
|----------------------------------------------------------------|

(2:13)
|-----------------------------------3\2-0h2—-5p2-2----------------|
|--3-----1-1-1-1----------------3h5----------------3-5~---2-3-5-3-|
|----2-----2-2-2--------0-2-4-5-----------------------------------|
|------0----------0-2-4-------------------------------------------|
|-----------------------------------------------------------------|
|-----------------------------------------------------------------|

(2:21)
|-----------------3-2-0-------------------------------2-------|
|—-0h1-3-1------3-------3-5-3-------------------2-3-5----3h5--|
|-----------3-4---------------4-------------2-4----------4----|
|-------------------------------4-2-0---4-5-------------------|
|-------------------------------------5-----------------------|
|-------------------------------------------------------------|

(2:28)
|------------------------------------------------0-0---------|
|--5p3---3--3-3----------------------------------1-1---------|
|------4----4-4-----------024-----2------------0-----0-2(0)--|
|--------------------0234-------4----5-4-3-2-----------------|
|----------------234-----------------------------------------|
|------------------------------------------------------------|

(2:36)
|--3-3--3-3------------------------------5-5-----2-2--------3--|
|--0-0--0-0-----5-3----------------------1-1-----1-1----0-3----|
|-(0-0—-0-0)--4-----4-0-------------------------------0--------|
|-----------------------2-0---------0---------0----------------|
|---------------------------3-2-3-5---0------------------------|
|--------------------------------------------------------------|

Coda:
(2:46)
|-------------------3----------532------------------------------3---|
|--------3--------3---3-----2------5353--------------3--------3---3-|
|----2-2---2----2---------2-------------420------2-2---2----2-------|
|--0----------0-----------------------------420-----------0---------|
|-------------------------------------------------------------------|
|-------------------------------------------------------------------|

|-------532------2--------------------3---------532-----------------|
|----2------53---3---------3--------3---3----2------5353------------|
|--2-------------2-----2-2---2----2--------2-------------420--------|
|-------------0------0----------0----------------------------420----|
|-------------------------------------------------------------------|
|-------------------------------------------------------------------|

|-----------------3----------532------2br---------------------------|
|------3--------3---3-----2------53---3br---------------------------|
|--2-2---2----2---------2-----------2—------------------------------|
|-----------0-------------------------------------------------------|
|-------------------------------------------------------------------|
|-------------------------------------------------------------------|
            
Submit corrections


        Goodnight lessons Hard to play? Try these video lessons and learn fast Goodnight lessons
        
↑ Back to top | Tablatures and chords for acoustic guitar and electric guitar, ukulele, drums are parodies/interpretations of the original songs. You may use it for private study, scholarship, research or language learning purposes only