Home » J » Joey Ramone »

Joey Ramone - What A Wonderful World Tabs

Artists:  A B C D E F G H I J K L M N O P Q R S T U V W X Y Z # 

What A Wonderful World Tabs

(ver. 2) Click to play this song!
Joey Ramone
F5             A5    A#5       A5  G          F5    A5         D5
I see Trees of green Red roses too I see them bloom for me and you

Chorus
                Riff 2 A#5(2)     C5        E5/F5 F5 F5  A5(2) C C C C C C
And I say to myself          what a wonderful   world

Riff 2
e:--4-----------------------------3--------|
B:--6-----------------------------5--------|
G:--6-------1----------3----------5--------|
D:--6---1h3---3p1------3----------5--------|
A:--4-------------4----1----------3--------|
E:-----------------------------------------|

I see skies of blue and clouds of white Bright sunny days dark sacred  nights


Chorus

F#5 F#5 
C#5                         F                   Bb F
The colors of the rainbow, so pretty in the sky
    C                    C               Bb F
Are also on the faces on people going by
      Em              B     Em                  B
I see friends shaking hand, saying how do you do
                     C5 A5   G5
They're really saying I love you

I hear babies cry I watch them grow They'll learn much more, that I'll never know


Chorus

     G5                     C5
Yes, I say to myself what a wonderful world

F5 F5 F5 F5 D#5 D#5 D#5 D#5 D5 D5 D5 D5

A#5                 C5
And I say to myself


                                           (x2)
|-8--8---8-8-----6-6-66--5-5-55--5-5-55-|-----3-----6-------------6------------8--|-----|
|-10-10--1010----8-8-88--7-7-77--7-7-77-|-----5-----6-------------8------------10-|-----|
|-10-10--1010----8-8-88--7-7-77--7-7-77-|-3---5--|--6-----1-------8-----3-3-33-10-|-----|
|-10—10--1010----8-8-88--7-7-77--7-7-77-|-3---5--|--6—1h3---3p1---8-3h5—-------10-|-----|
|-8—-8---8-8-----6-6-66--5-5-55--5-5-55-|-1---3--|--4-----------4-6------------8--|-8\x-|
|---------------------------------------|-----------------------------------------|-----|
wo  -   o   -   orld                    And i say   wo  -   o -   o -   orld
                                        to?            
Submit corrections

↑ Back to top | Tablatures and chords for acoustic guitar and electric guitar, ukulele, drums are parodies/interpretations of the original songs. You may use it for private study, scholarship, research or language learning purposes only