Home » J » Joe Diffie »

Joe Diffie - Honky Tonk Attitude Tabs

Artists:  A B C D E F G H I J K L M N O P Q R S T U V W X Y Z # 

Honky Tonk Attitude Tabs

(ver. 2) Click to play this song!
Joe Diffie
Joe Diffie - Honky Tonk Attitude

This is a Axehappy tab. I just posted it!



INTRO


E--------------------------------------------------------------------
B---------------------5/6-6-6-5/6-6-6-5/6-6-5/6-6-6-6\5p3-5-3--------
G--7-6-5--5-4-3-------6/7-7-7-6/7-7-7-6/7-7-6/7-7-7-7\5p3-5-3b-------
D--7-6-5--5-4-3--3-5-------------------------------------5----5p3-5--
A--5-4-3--3-2-1--3-5-------------------------------------------------
E----------------1-3-------------------------------------------------


E--------------------|
B--------------------|
G--5br-3b------------|
D--------5p3-5-3/5---|
A-----------5--------|
E--------------------|


SOLO


E---------------------3--3--3------------------3----3----3----3----3----3-3-
B---------------------3--3--3--------5-3-------3----3----3----3----3----3-3-
G--7-6-5--5-4-3--------5b-5b--5br-p3-5-3b---3-5--3-5--3-5--3-5--3-5--3-5----
D--7-6-5--5-4-3--3-5----------------5------5----5----5----5----5----5-------
A--5-4-3--3-2-1--3-5--------------------------------------------------------
E----------------1-3--------------------------------------------------------


E--6--3--------------------10--------10--------10--10----------
B--5b-3------------6-8-8/--11b-------11b-------11b-11b---------
G------5br-p3-3-5/7-7---------12-9-12---12-9-12-------12-9-12--
D------------5-------------------------------------------------
A--------------------------------------------------------------
E--------------------------------------------------------------


E-----------------------------------------------------
B--15br-13-12-11--------------------------------------
G---------------12-9-12--12\10--10--------------------
D-----------------------------12--12\10p8--10-8b------
A----------------------------------------10-----10-10-
E-----------------------------------------------------


E------------------------------------------------------|
B--5/6-6-6-5/6-6-6-5/6-6-5/6-6-6-5/6-6-6-6\5p3-5-3-----|
G--6/7-7-7-6/7-7-7-6/7-7-6/7-7-7-6/7-7-7-7\5p3-5-3b----|
D---------------------------------------------5----5---|
A------------------------------------------------------|
E------------------------------------------------------|

            
Submit corrections

↑ Back to top | Tablatures and chords for acoustic guitar and electric guitar, ukulele, drums are parodies/interpretations of the original songs. You may use it for private study, scholarship, research or language learning purposes only