Home » J » Joe Diffie »

Joe Diffie - Pickup Man Tabs

Artists:  A B C D E F G H I J K L M N O P Q R S T U V W X Y Z # 

Pickup Man Tabs

(ver. 1) Click to play this song!
Joe Diffie
Joe Diffie - Pickup Man (intro)

By Stallion ksteberg at tiscali.no

Just another suggestion to play this riff.
This is the intro/outro riff.

************************************************************************
p = pulloff	/ = slide up	h = hammer on

~ = vibrato	b = bend	bh = bend and hold

\ = slide down	! harmonic	r = release bend

************************************************************************

				                      
E-----------------------------------------------------------
B----3-2-1--------------------------------------------------
G--0-------3-0------------------0-0----0-3p0----0-0-----0---
D--------------3-0---------0----0---3b-------3b-----0h3-----
A------------------4-3-1/2----------------------------------
E----------------------------2b-----------------------------


                  
E----------------------------------|
B----------------------------------|
G-----0-0----0-3p0----0-0-----0----|
D-----0---3b-------3b-----0h3------|
A----------------------------------|
E--2b------------------------------|






			

            
Submit corrections

↑ Back to top | Tablatures and chords for acoustic guitar and electric guitar, ukulele, drums are parodies/interpretations of the original songs. You may use it for private study, scholarship, research or language learning purposes only