Home » J » Jo Dee Messina »

Jo Dee Messina - Bring On The Rain*correct* Tabs

Artists:  A B C D E F G H I J K L M N O P Q R S T U V W X Y Z # 

Bring On The Rain*correct* Tabs

(ver. 1) Click to play this song!
Jo Dee Messina
INTRO
e----1--1--3-----------1--3-1----
B---1--1--1---------3------------
G------------------2--2--2----2--
D--3--3--2--2-3-2-0--0--0--0-0-0-
A--------------------------------
E--------------------------------

e----1--1--3--------1---1--
B---1--1--1-----------3----
G------------------2---2---
D--3--3--2--2-3-2-0--0---0-
A--------------------------
E--------------------------

VERSE 1
e-------1----1--------1-----1--
B------1--1-1------------3-----
G--------------------2--2--2---
D-0-2-3--3-2--2-3-2-0--0--0--0-
A------------------------------
E------------------------------
    Another day has almost come and gone

e-------1--1--1-----------1-----
B------1--1--1---------3-----3--
G---------------------2--2--2---
D-2-0-3--3--2--2-3-2-0--0--0--0-
A-------------------------------
E-------------------------------
     Can't imagine what else could go wrong

e-----1-----------0-----3-0----
B-3-----3---3--3-----2------2--
G--3-3---3-3--3--2--2--2-----2-
D------------3-----------------
A---1--1--1-----0--0--0--0-0---
E------------------------------
   Sometimes I’d like to hide away somewhere and lock the door

e---1-----1--0-------3-
B--3---3-1--1----3-----
G-----2---------0--0---
D-0--0---------0--0----
A-------3--3--2-----2--
E----------------------
   A single battle lost but not the war

CHORUS
e----1-----1---
B---1---1-1--1-
G------2-------
D--3--3--3--3--
A--------------
E--------------
  (Cause) Tomorrow's another day

e--------0--
B----1--1---
G---0--0--0-
D--2--2-----
A-----------
E-----------
   And I'm thirsty anyway

   So bring on the rain

repeat INTRO



Check the other posts for the chords to strum the rest of the song.
            
Submit corrections

↑ Back to top | Tablatures and chords for acoustic guitar and electric guitar, ukulele, drums are parodies/interpretations of the original songs. You may use it for private study, scholarship, research or language learning purposes only