Home » J » Jo Dee Messina »

Jo Dee Messina - Because You Love Me Tabs

Artists:  A B C D E F G H I J K L M N O P Q R S T U V W X Y Z # 

Because You Love Me Tabs

(ver. 1) Click to play this song!
Jo Dee Messina
Written out by Arianna



this is only my second tab and i havent been playing for very long so there may
be some slides and stuff that i just can't make out yet but if you listen to the 
song you'll probably get it. 


h=hit
p=pull off
s=slide


e-----------------------------------------------------------------------------------
b----------------------------5-7-5---7--9--10--10--10p9--7--5--5-----7---5p3--7-5---
g-------6-----------6--6--7---------------------------------------7-----------------
d----------9--7---------------------------------------------------------------------
a---7-------------------------------------------------------------------------------
e-----------------------------------------------------------------------------------






e------------------------------------------------------------------10h12-12-12-12---
b---------------------------------------10-10--10-10h12--14--10---------------------
g--5s6--7h9------------6------9--9h11--9--------------------------------------------
d------------7--9p7------7----------------------------------------------------------
a-----------------------------------------------------------------------------------
e-----------------------------------------------------------------------------------






e--10---10---12------------------------------------------------
b-----------------14---------------------------------------
g---------------------------------------------------------
d---------------------------------------------------------
a----------------------------------------------------------
e-----------------------------------------------------------
            
Submit corrections

↑ Back to top | Tablatures and chords for acoustic guitar and electric guitar, ukulele, drums are parodies/interpretations of the original songs. You may use it for private study, scholarship, research or language learning purposes only