» » »

Jimmy Buffett - Grapefruit Juicy Fruit Bass

Artists:  A B C D E F G H I J K L M N O P Q R S T U V W X Y Z # 

Grapefruit Juicy Fruit Bass

(ver. 1) Click to play this song!
Jimmy Buffett
 Rating:
3.3/5 (25 votes)

 Grapefruit Juicy Fruit  lessons Tabs too difficult? Try these video lessons and learn fast
 
                 Intro
  Q=128(8=s8)
 4/4
  Gtr I (Dropped D-Tuning - DADG)
  W          W          W          W
|----------|----------|----------|------|
|----------|----------|----------|------|
|----------|----------|----------|------|
|----------|----------|----------|------|


  W          W          W          W
|----------|----------|----------|------|
|----------|----------|----------|------|
|----------|----------|----------|------|
|----------|----------|----------|------|


  Q  H.        +W           Q  H.        +W
|------------|------------|------------|--------|
|------------|------------|------------|--------|
|-2--3-------|-(3)--------|-2--3-------|-(3)----|
|------------|------------|------------|--------|


  Q  H.        +H     Q  Q    Q  H.        +Q   Q  Q  Q
|------------|--------------|------------|---------------||
|------------|--------------|------------|---------------||
|------------|--------0--2--|-2--3-------|-(3)-----0--2--||
|-4--5-------|-(5)----------|------------|------5--------||


   1st & 2nd Verses
    Q  Q  H      H    H      Q  Q  H      H    H
||-------------|-----------|------------|-----------|
||o------------|-----------|------------|-----------|
||o-2--3-------|-3---------|-2--3-------|-3---------|
||--------5----|------5----|-------5----|------5----|


  Q  Q  H      H    H      H    H      H    Q  Q
|------------|-----------|-----------|------------|
|------------|-----------|-----------|------------|
|------------|-----------|-3---------|-3----------|
|-4--5--0----|-5----0----|------5----|------5--5--|


  Q  Q  H      H    H      Q  Q  H      H    H
|------------|-----------|------------|-----------|
|------------|-----------|------------|-----------|
|-2--3-------|-3---------|-2--3-------|-3---------|
|-------5----|------5----|-------5----|------5----|


  Q  Q  H      H    H      H    H      H    Q  Q
|------------|-----------|-----------|------------||
|------------|-----------|-----------|------------||
|------------|-----------|-3---------|-3-------3--||
|-4--5--0----|-5----0----|------5----|------5-----||


 Bridge
  Q  Q  Q  Q    Q  Q  Q  Q    Q  Q  Q  Q    Q  Q  Q  Q
|-------------|-------------|-------------|-------------|
|-------------|-------------|-------------|-------------|
|-5--3--2--0--|-------0--2--|-3--3--------|-3--3-----3--|
|-------------|-5--5--------|-------5--5--|-------5-----|


  Q  Q  Q  Q    Q  Q  Q  Q    Q  Q  Q  Q    Q  Q  Q  Q
|-------------|-------------|-------------|-------------|
|----2--3-----|-------------|-------------|-------------|
|-5--------5--|-------0--2--|-3--3--------|-3--3-----3--|
|-------------|-5--5--------|-------5--5--|-------5-----|


  Q  Q  Q  Q    Q  Q  Q  Q    Q  Q  Q  Q    Q  Q  Q  Q
|-------------|-------------|-------------|-------------|
|----2--3-----|-------------|-------------|-------------|
|-5--------5--|-------0--2--|-3--3--------|-3--3-----3--|
|-------------|-5--5--------|-------5--5--|-------5-----|


  Q  Q  Q  Q    Q  Q  Q  Q    W          +H.      Q
|-------------|-------------|----------|--------------||
|-------------|-------2--4--|-5--------|-(5)---------o||
|-5--5--0--0--|-5--5--------|----------|-------------o||
|-------------|-------------|----------|----------5---||


 Outro
  Q  Q  H      H    H      Q  Q  H      H    H
|------------|-----------|------------|-----------|
|------------|-----------|------------|-----------|
|-2--3-------|-3---------|-2--3-------|-3---------|
|-------5----|------5----|-------5----|------5----|


  Q  Q  H      H    H      H    H      H    Q  Q
|------------|-----------|-----------|------------|
|------------|-----------|-----------|------------|
|------------|-----------|-3---------|-3----------|
|-4--5--0----|-5----0----|------5----|------5--5--|


  Q  Q  H      H    H      Q  Q  Q  Q    Q  Q  H      +W
|------------|-----------|-------------|------------|--------*|
|------------|-----------|-------------|------------|--------*|
|------------|-----------|-3--3--------|-3--3-------|--------*|
|-4--5--0----|-5----0----|-------5--5--|-------5----|-(5)----*|            
Submit corrections


        Grapefruit Juicy Fruit  lessons Hard to play? Try these video lessons and learn fast Grapefruit Juicy Fruit  lessons
        
↑ Back to top | Tablatures and chords for acoustic guitar and electric guitar, ukulele, drums are parodies/interpretations of the original songs. You may use it for private study, scholarship, research or language learning purposes only