» » »

Jimmy Buffett - Grapefruit Juicy Fruit Tabs

Artists:  A B C D E F G H I J K L M N O P Q R S T U V W X Y Z # 

Grapefruit Juicy Fruit Tabs

(ver. 1) Click to play this song!
Jimmy Buffett
 Rating:
4.5/5 (20 votes)

 Grapefruit Juicy Fruit  lessons Tabs too difficult? Try these video lessons and learn fast
 
                 Intro
  Q=128(8=s8)
  B  C
 4/4
  Gtr I (Ac. Gtr.)
  Q  Q  +E  E E E   +E  Q   E +E  Q   E
|-----------------|---------------------|
|-4--5--(5)-----6-|-(6)-5---4-(4)-5-----|
|-------------0---|---------------------|
|-4--5--(5)-5-----|---------------------|
|-2--3--(3)-------|--3----3----3----3---|
|-----------------|---------------------|
                     Q    Q    Q    Q


  B  C
  Q  Q  +E  E E E   +E  Q   E +E  Q   E
|-----------------|----------------------|
|-4--5--(5)-----6-|-(6)-5---4-(4)-5------|
|-------------0---|----------------------|
|-4--5--(5)-5-----|----------------------|
|-2--3--(3)-------|--3----3----3----3----|
|-----------------|----------------------|
                     Q    Q    Q    Q


  F# G                                  C
              |-3-|
  Q  Q  +E  E E E E   E E E E E E E E   Q  Q  E E E E   +E  E Q  Q  Q
|----3--(3)---------|-----------------|---------------|-----------------|
|----0--(0)-0-0h1-1-|-0---------------|-1--1--------1-|-(1)-1-----------|
|-3--0--(0)-------0-|-0-----0---0---0-|-0--0----0---0-|-(0)-0-----------|
|-4-----------0h2---|-0-0-------------|-----------2---|-----------------|
|-------------------|---------0---2---|-3--3----------|----------0--2---|
|-2--3--(3)---------|-----3-----------|-------3-------|-------3---------|


  B  C                                B  C
  Q  Q  +Q.   E   +E  Q  E +E  Q.     Q  Q  +Q.   E   +E  Q  E +E  Q.
|---------------|-------------------|---------------|-------------------|
|-4--5--(5)---6-|-(6)-5--4-(4)-5----|-4--5--(5)---6-|-(6)-5--4-(4)-5----|
|-------------5-|-(5)-5--4-(4)-5----|-------------5-|-(5)-5--4-(4)-5----|
|-4--5--(5)---5-|-(5)-5--4-(4)-5----|-4--5--(5)---5-|-(5)-5--4-(4)-5----|
|-2--3--(3)-----|-------------------|-2--3--(3)-----|-------------------|
|---------------|-------------------|---------------|-------------------|


  F# G                           B  C
  Q  H.        +E  E E E Q  Q    Q  H.        +Q   Q  Q  Q
|------------|-----------------|------------|---------------||
|----0-------|-(0)-------------|-4--5-------|-(5)-----------||
|-3--0-------|-(0)-0---0-------|------------|---------------||
|-4----------|-----------------|-4--5-------|-(5)-----------||
|------------|-----------0--2--|-2--3-------|-(3)-----0--2--||
|-2--3-------|-(3)---3---------|------------|------3--------||


   1st & 2nd Verses
    B  C
    Q  Q  +Q.     E   +E  Q   E +E  Q.
||------------------|--------------------|
||o-4--5--(5)-----6-|-(6)-5---4-(4)-5----|
||----------------5-|-(5)-5---4-(4)-5----|
||--4--5--(5)-----5-|-(5)-5---4-(4)-5----|
||o-2--3--(3)-------|--------------------|
||------------------|--------------------|
|
|   Gtr II (Ac. Gtr.)
|   H      E  E E E    Q    E E  H
||------------------|--------------------|
||o-----------7s8---|-/8----6-5----------|
||------------8s9---|-/9----7-5----------|
||------------------|--------------------|
||o-----------------|--------------------|
||------------------|--------------------|


  B  C
  Q  Q  +Q.     E   +E  Q    E +E  Q.
|-----------------|-----------------------|
|-4--5--(5)-----6-|-(6)-5----4-(4)-5------|
|---------------5-|-(5)-5----4-(4)-5------|
|-4--5--(5)-----5-|-(5)-5----4-(4)-5------|
|-2--3--(3)-------|-----------------------|
|-----------------|-----------------------|
|
| H      E  E E E    E  E  E E  Q     Q
|-----------8-----|-----------------------|
|-----------8---8-|-------10----8---------|
|---------------8h|==9--9--9-9--9---------|
|-----------------|-----------------------|
|-----------------|-----------------------|
|-----------------|-----------------------|


  F# G
              |-3-|
  Q  Q  +E  E E E E   E E E E E E E E
|----3--(3)---------|-----------------|
|----0--(0)-0-0h1-1-|-0---------------|
|-3--0--(0)-------0-|-0-----0---0---0-|
|-4-----------0h2---|-0-0-------------|
|-------------------|---------0---2---|
|-2--3--(3)---------|-----3-----------|
|
| H      E  E Q       E E E E Q   Q
|-----------7-------|-----------------|
|-----------6-------|-6---------------|
|-------------------|-7---8s9---------|
|-------------------|---9-----9-------|
|-------------------|-----------------|
|-------------------|-----------------|


  C
  Q   Q     E E E  E     +E  E  Q   Q  Q
|--------------------|---------------------|
|-1---1------------1-|---(1)-1-------------|
|-0---0-------0----0-|---(0)-0-------------|
|---------------2----|---------------------|
|-3---3--------------|--------------0--2---|
|-----------3--------|----------3----------|
|
|     |-3-|
| E E E E E Q   E  E   a  Q     Q   Q  Q
|---------8----------|---------------------|
|-------8------------|----------8---7--6---|
|---8-9--------------|-8h=9-----9---8--7---|
|-----------------10-|---------10--10--9---|
|--------------------|---------------------|
|--------------------|---------------------|


  B  C                                 B  C
  Q  Q   +Q.   E   +E  Q  E +E  Q.     Q  Q  +Q.     E   +E  Q   E +E  Q.
|----------------|-------------------|-----------------|----------------------|
|-4--5---(5)---6-|-(6)-5--4-(4)-5----|-4--5--(5)-----6-|-(6)-5---4-(4)-5------|
|--------------5-|-(5)-5--4-(4)-5----|---------------5-|-(5)-5---4-(4)-5------|
|-4--5---(5)---5-|-(5)-5--4-(4)-5----|-4--5--(5)-----5-|-(5)-5---4-(4)-5------|
|-2--3---(3)-----|-------------------|-2--3--(3)-------|----------------------|
|----------------|-------------------|-----------------|----------------------|
|
| Q  H.             W                  Q  Q  +E  E E E    E  E E E  E  E  E E
|----------------|-------------------|-----------------|----------------------|
|-7--8-----------|-------------------|-4--5--(5)-x-x-5-|--x--5-x-5--x--5--x-5-|
|-8--9-----------|-------------------|-4--5--(5)-x-x-5-|--x--5-x-5--x--5--x-5-|
|----------------|-------------------|-4--5--(5)-x-x-5-|--x--5-x-5--x--5--x-5-|
|----------------|-------------------|-2--3--(3)-------|----------------------|
|----------------|-------------------|-----------------|----------------------|


  F#        C/G      G
  Q  Q  +E  E +Q     Q  Q  +E  E +Q
|-2--3--(3)-3-(3)--|-3--3--(3)-3-(3)--|
|-2--0--(0)-1-(1)--|-0--0--(0)-0-(0)--|
|-3--0--(0)-0-(0)--|-0--0--(0)-0-(0)--|
|-4--0--(0)-2-(2)--|-0--0--(0)-0-(0)--|
|-4----------------|------------------|
|-2--3--(3)-3-(3)--|-3--3--(3)-3-(3)--|
|
| Q  Q   E  E +Q     Q  Q   E  E +Q
|-2--3---3--3-(3)--|-3--3---3--3-(3)--|
|-2--0---0--1-(1)--|-0--0---0--0-(0)--|
|-3--0---0--0-(0)--|-0--0---0--0-(0)--|
|-4--0---0--2-(2)--|-0--0---0--0-(0)--|
|-4----------------|------------------|
|-2--3---3--3-(3)--|-3--3---3--3-(3)--|


  C
  Q  Q  +E  E +Q      Q   Q   +E  E +Q
|-------------------|---------------------||
|-5--5--(5)-5-(5)---|-5---5---(5)-5-(5)---||
|-5--5--(5)-5-(5)---|-5---5---(5)-5-(5)---||
|-5--5--(5)-5-(5)---|-5---5---(5)-5-(5)---||
|-3--3--(3)-3-(3)---|-3---3---(3)-3-(3)---||
|-------------------|---------------------||
|
| Q  Q  +E  E  E  E   E E E E  E  E  E  E
|-------------------|---------------------||
|-5--5--(5)-x--x--5-|-x-5-x-5--x--5--x--5-||
|-5--5--(5)-x--x--5-|-x-5-x-5--x--5--x--5-||
|-5--5--(5)-x--x--5-|-x-5-x-5--x--5--x--5-||
|-3--3--(3)---------|---------------------||
|-------------------|---------------------||


 Bridge
  Dm7               G7                Cmaj7         C6
  Gtrs I, II
  Q  E E +Q   E E   Q  E E +Q   E E   Q  E E +Q   E E   +Q   E E +E  E E E
|-5--5-5-(5)--5-5-|-3--3-3-(3)--3-3-|-----------------|--------------------|
|-6--6-6-(6)--6-6-|-3--3-3-(3)--3-3-|-5--5-5-(5)--5-1-|-(1)--1-1-(1)-1-1---|
|-5--5-5-(5)--5-5-|-4--4-4-(4)--4-4-|-4--4-4-(4)--4-2-|-(2)--2-2-(2)-2-2---|
|-7--7-7-(7)--7-7-|-3--3-3-(3)--3-3-|-5--5-5-(5)--5-2-|-(2)--2-2-(2)-2-2---|
|-5--5-5-(5)--5-5-|-5--5-5-(5)--5-5-|-3--3-3-(3)--3-3-|-(3)--3-3-(3)-3-3---|
|-----------------|-3--3-3-(3)--3-3-|-----------------|--------------------|


  Dm7           G7                       Cmaj7
  Q  E E +Q   E E   +Q   E E +E  E E E   E E E E E E E E   E E E E +E  Q.
|-5--5-5-(5)--5-3-|-(3)--3-3-(3)-3-3-x-|-----------------|------------------|
|-6--6-6-(6)--6-3-|-(3)--3-3-(3)-3-3-x-|-5-x-5-x-5-x-5-x-|-5-x-5-5-(5)-5----|
|-5--5-5-(5)--5-4-|-(4)--4-4-(4)-4-4-x-|-4-x-4-x-4-x-4-x-|-4-x-4-4-(4)-4----|
|-7--7-7-(7)--7-3-|-(3)--3-3-(3)-3-3-x-|-5-x-5-x-5-x-5-x-|-5-x-5-5-(5)-5----|
|-5--5-5-(5)--5-5-|-(5)--5-5-(5)-5-5-x-|-3-x-3-x-3-x-3-x-|-3-x-3-3-(3)-3----|
|---------------3-|-(3)--3-3-(3)-3-3-x-|-----------------|------------------|


  Dm7               G7                Cmaj7         C6
  Q  E E +Q   E E   Q  E E +Q   E E   Q  E E +Q   E E   +Q   E E +E  E E E
|-5--5-5-(5)--5-5-|-3--3-3-(3)--3-3-|-----------------|--------------------|
|-6--6-6-(6)--6-6-|-3--3-3-(3)--3-3-|-5--5-5-(5)--5-1-|-(1)--1-1-(1)-1-1---|
|-5--5-5-(5)--5-5-|-4--4-4-(4)--4-4-|-4--4-4-(4)--4-2-|-(2)--2-2-(2)-2-2---|
|-7--7-7-(7)--7-7-|-3--3-3-(3)--3-3-|-5--5-5-(5)--5-2-|-(2)--2-2-(2)-2-2---|
|-5--5-5-(5)--5-5-|-5--5-5-(5)--5-5-|-3--3-3-(3)--3-3-|-(3)--3-3-(3)-3-3---|
|-----------------|-3--3-3-(3)--3-3-|-----------------|--------------------|


  D7                                  G7
  Q  E E +Q   E E   Q  E E +Q   E E   W          +H.      Q
|-----------------|-----------------|-3--------|-(3)----------||
|-7--7-7-(7)--7-7-|-7--7-7-(7)--7-7-|-3--------|-(3)---------o||
|-5--5-5-(5)--5-5-|-5--5-5-(5)--5-5-|-4--------|-(4)----------||
|-7--7-7-(7)--7-7-|-7--7-7-(7)--7-7-|-3--------|-(3)----------||
|-5--5-5-(5)--5-5-|-5--5-5-(5)--5-5-|-5--------|-(5)---------o||
|-----------------|-----------------|-3--------|-(3)----------||


 Outro
  B  C                                B  C
  Q  Q  +Q.   E   +E  Q  E +E  Q.     Q  Q  +Q.   E   +E  Q  E +E  Q.
|---------------|-------------------|---------------|-------------------|
|-4--5--(5)---6-|-(6)-5--4-(4)-5----|-4--5--(5)---6-|-(6)-5--4-(4)-5----|
|-------------5-|-(5)-5--4-(4)-5----|-------------5-|-(5)-5--4-(4)-5----|
|-4--5--(5)---5-|-(5)-5--4-(4)-5----|-4--5--(5)---5-|-(5)-5--4-(4)-5----|
|-2--3--(3)-----|-------------------|-2--3--(3)-----|-------------------|
|---------------|-------------------|---------------|-------------------|


  F# G                                  C
              |-3-|
  Q  Q  +E  E E E E   E E E E E E E E   Q   Q  E  E E E   +E  E Q  Q  Q
|----3--(3)---------|-----------------|-----------------|-----------------|
|----0--(0)-0-0h1-1-|-0---------------|-1---1---------1-|-(1)-1-----------|
|-3--0--(0)-------0-|-0-----0---0---0-|-0---0-----0---0-|-(0)-0-----------|
|-4-----------0h2---|-0-0-------------|-------------2---|-----------------|
|-------------------|---------0---2---|-3---3-----------|----------0--2---|
|-2--3--(3)---------|-----3-----------|--------3--------|-------3---------|
|
|                                     Gtr II
| W                   W                 Q   Q  E  E Q      Q    Q  H
|-------------------|-----------------|-----------------|-----------------|
|-------------------|-----------------|----/5----/5-----|--5----5---------|
|-------------------|-----------------|----/5----/5-----|--5----5---------|
|-------------------|-----------------|-----------------|-----------------|
|-------------------|-----------------|-----------------|-----------------|
|-------------------|-----------------|-----------------|-----------------|


               |-3-|
  Q  Q   +E  E E E E   E E  E E E E E E
|----3---(3)---------|------------------|
|----0---(0)-0-0h1-1-|-0----------------|
|-3--0---(0)-------0-|-0------0---0---0-|
|-4------------0h2---|-0-0--------------|
|--------------------|----------0---2---|
|-2--3---(3)---------|------3-----------|
|
| Q  H.                E Q.     Q   Q
|--------------------|------------------|
|-2--3---------------|---5\-----1---1---|
|-3--4---------------|---4\-----2---2---|
|--------------------|------------------|
|--------------------|------------------|
|--------------------|------------------|


  Cmaj7
  Q   E E +Q   E E   Q  Q  H      +W
|------------------|------------|--------*|
|-5---5-5-(5)--5-5-|-5--5--5----|-(5)----*|
|-4---4-4-(4)--4-4-|-4--4--4----|-(4)----*|
|-5---5-5-(5)--5-5-|-5--5--5----|-(5)----*|
|-3---3-3-(3)--3-3-|-3--3--3----|-(3)----*|
|------------------|------------|--------*|
|
| E E Q    q   Q     Q  Q  H      +W
|------------------|------------|--------*|
|---5------5---0---|-1--4--5----|-(5)----*|
|---5------5---0---|-0--4--5----|-(5)----*|
|------------------|-2----------|--------*|
|------------------|------------|--------*|
|------------------|------------|--------*|            
Submit corrections


        Grapefruit Juicy Fruit  lessons Hard to play? Try these video lessons and learn fast Grapefruit Juicy Fruit  lessons
        
↑ Back to top | Tablatures and chords for acoustic guitar and electric guitar, ukulele, drums are parodies/interpretations of the original songs. You may use it for private study, scholarship, research or language learning purposes only