» » »

Jimmy Buffett - Coast Of Marseilles Chords

Artists:  A B C D E F G H I J K L M N O P Q R S T U V W X Y Z # 

Coast Of Marseilles Chords

(ver. 1) Click to play this song!
Jimmy Buffett
 Rating:
4.2/5 (5 votes)

 Coast Of Marseilles lessons Tabs too difficult? Try these video lessons and learn fast
 
                Coast of Marseilles

Recorded by Jimmy Buffett
Written by Kieth Sykes


Intro:
 (E)  (G#7) (C#m7)  (Cm7) (Bm7)
 (A)  (Bm7) (A) (Bm7)
 (E)  (G#7) (C#m7)  (Cm7) (Bm7)
 (A)  (Bm7)

                           C9       B9        E6
E--------------------------------------------------0--
B--2-----0--------------------3---------2---------2---
G----0-----0----2----1----------3---------2------1----
D--2-----0--------0----0----2---------1---------2-----
A---------------4----2----3---------2----------2------
E---------------------------------------------0-------

(E)I sat there on the (G#7)coast of Marseilles (C#m7)  (Cm7) (Bm7)

My (A)thoughts came by like (Bm7)wind through my (A)hand (Bm7)

How (E)good it'd be to (G#7)feel you again. (C#m7)  (Cm7) (Bm7)

How (A)good it'd be to (Bm7)feel that way again


                           C9       B9        E6
E--------------------------------------------------0--
B--2-----0--------------------3---------2---------2---
G----0-----0----2----1----------3---------2------1----
D--2-----0--------0----0----2---------1---------2-----
A---------------4----2----3---------2----------2------
E---------------------------------------------0-------


(E)Would you be (G#7)remembering me? (C#m7)  (Cm7) (Bm7)

I (A)ask that question (Bm7)time and (A)again

The (E)answer came and (G#7)haunted me so.(C#m7)  (Cm7) (Bm7)

I (A)would not want to (Bm7)think it again


E-----------------------------------------
B--2-----0--------------------------------
G----0-----0----2-------------------------
D--2-----0--------0-----------------------
A---------------4-------------------------
E-----------------------------------------

         C9               B9           E
 No, I would not want to think it again
E----------------------------------------0
B---------3-----------------2-----------0-
G-1--------3------------------2--------1--
D--0----2-----------------1-----------2---
A-2---3-----------------2------------2----
E-----------------------------------0-----

(C#m7) You__________(G#m7)________________

(C#m)Make it so (B)hard to for(E)get  (C7)

(C#m7) I___________(G#m7)_____________

(C#m)Haven't (A)stopped (B)loving you (A)yet.

INSTRUMENTAL:
(E)  (G#7) (C#m7)  (Cm7) (Bm7)
(A)  (Bm7) (A) (Bm7)
(E)  (G#7) (C#m7)  (Cm7) (Bm7)
(A)  (Bm7)
                           C9       B9        E6
E--------------------------------------------------0--
B--2-----0--------------------3---------2---------2---
G----0-----0----2----1----------3---------2------1----
D--2-----0--------0----0----2---------1---------2-----
A---------------4----2----3---------2----------2------
E---------------------------------------------0-------

(C#m7) You__________(G#m7)________________

(C#m)Make it so (B)hard to for(E)get  (C7)

(C#m7) I___________(G#m7)_____________

(C#m)haven't (A)stopped (B)loving you (A)yet.


(E)When I left the (G#7)coast of Marseilles (C#m7)  (Cm7) (Bm7)

I (A)hadn't done what (Bm7)I'd come to (A)do. (Bm7)

(E)Spent all the (G#7)money I'd saved (C#m7)  (Cm7) (Bm7)

(A)Still did not (Bm7)get over you

E-----------------------------------------
B--2-----0--------------------------------
G----0-----0----2-------------------------
D--2-----0--------0-----------------------
A---------------4-------------------------
E-----------------------------------------

 No, I (C9)still did not (B9)get over (E)you

E-----------------------------------------
B---------3-----------------2-------------
G-1--------3------------------2-----------
D--0----2-----------------1---------------
A-2---3-----------------2-----------------
E-----------------------------------------


  (C#m7)   (C9)       (B9)     (E6)
   You_____________________
E----------------------------------0---
B-------------3---------2---------2----
G---------------3---------2------1-----
D-----------2---------1---------2------
A---------3---------2----------2-------
E-----------------------------0--------


 
            
Submit corrections


        Coast Of Marseilles lessons Hard to play? Try these video lessons and learn fast Coast Of Marseilles lessons
        
↑ Back to top | Tablatures and chords for acoustic guitar and electric guitar, ukulele, drums are parodies/interpretations of the original songs. You may use it for private study, scholarship, research or language learning purposes only