» » »

Jimmy Buffett - Changes In Latitudes Tabs

Artists:  A B C D E F G H I J K L M N O P Q R S T U V W X Y Z # 

Changes In Latitudes Tabs

(ver. 3) Click to play this song!
Jimmy Buffett
 Rating:
4.1/5 (24 votes)

 Changes In Latitudes lessons Tabs too difficult? Try these video lessons and learn fast
 
                  G                 D                 A                 D
 4/4
  Gtr I (Ac. Gtr.)
  Q  E E +E  E Q    Q  E E +E  E Q    Q  E E +E  E Q    Q  E E +E  E Q
|-3--3-3-(3)-3-3--|-2--2-2-(2)-2-2--|-0--0-0-(0)-0-0--|-2--2-2-(2)-2-2--|
|-0--0-0-(0)-0-0--|-3--3-3-(3)-3-3--|-2--2-2-(2)-2-2--|-3--3-3-(3)-3-3--|
|-0--0-0-(0)-0-0--|-2--2-2-(2)-2-2--|-2--2-2-(2)-2-2--|-2--2-2-(2)-2-2--|
|-0--0-0-(0)-0-0--|-0--0-0-(0)-0-0--|-2--2-2-(2)-2-2--|-0--0-0-(0)-0-0--|
|-2--2-2-(2)-2-2--|-----------------|-0--0-0-(0)-0-0--|-----------------|
|-3--3-3-(3)-3-3--|-----------------|-----------------|-----------------|


  G                  D                  A                  G D/Em
                                                          2/4
  Q   E E +E  E Q    Q   E E +E  E Q    Q   E E +E  E Q    E E Q
|-3---3-3-(3)-3-3--|-2---2-2-(2)-2-2--|-0---0-0-(0)-0-0--|-3---0---|
|-0---0-0-(0)-0-0--|-3---3-3-(3)-3-3--|-2---2-2-(2)-2-2--|-0-3-0---|
|-0---0-0-(0)-0-0--|-2---2-2-(2)-2-2--|-2---2-2-(2)-2-2--|-0-2-0---|
|-0---0-0-(0)-0-0--|-0---0-0-(0)-0-0--|-2---2-2-(2)-2-2--|-0-0-2---|
|-2---2-2-(2)-2-2--|------------------|-0---0-0-(0)-0-0--|-2---2---|
|-3---3-3-(3)-3-3--|------------------|------------------|-3-2-0---|
|
| Gtr III (Piano arr. for Gtr.)
| E E E E +E  E Q    E E E E +E  E Q    E E E E +E  E Q    E E Q
|-7-7-7-7-(7)-5-3--|-5-5-5-5-(5)-3-2--|------------------|---------|
|-8-8-8-8-(8)-7-5--|-7-7-7-7-(7)-5-3--|-5-5-5-5-(5)-3-5--|-8-7-5---|
|------------------|------------------|-6-6-6-6-(6)-4-6--|---------|
|------------------|------------------|------------------|---------|
|------------------|------------------|------------------|---------|
|------------------|------------------|------------------|---------|


                                       1st - 3rd Verses
                                    $
  D                                     D                 G
 4/4
  Q  E E +E  E Q    Q  E E +E  E Q      Q  E E +E  E Q    Q  E E +E  E Q
|-2--2-2-(2)-2-2--|-2--2-2-(2)-2-2--||--2--2-2-(2)-2-2--|-3--3-3-(3)-3-3--|
|-3--3-3-(3)-3-3--|-3--3-3-(3)-3-3--||o-3--3-3-(3)-3-3--|-0--0-0-(0)-0-0--|
|-2--2-2-(2)-2-2--|-2--2-2-(2)-2-2--||--2--2-2-(2)-2-2--|-0--0-0-(0)-0-0--|
|-0--0-0-(0)-0-0--|-0--0-0-(0)-0-0--||--0--0-0-(0)-0-0--|-0--0-0-(0)-0-0--|
|-----------------|-----------------||o-----------------|-2--2-2-(2)-2-2--|
|-----------------|-----------------||------------------|-3--3-3-(3)-3-3--|
|
| W                 W                   W                 W
|-----------------|-----------------||------------------|-----------------|
|-7---------------|-----------------||o-----------------|-----------------|
|-7---------------|-----------------||------------------|-----------------|
|-----------------|-----------------||------------------|-----------------|
|-----------------|-----------------||o-----------------|-----------------|
|-----------------|-----------------||------------------|-----------------|


  A                 D                                   G
  Q  E E +E  E Q    Q  E E +E  E Q    Q  E E +E  E Q    Q  E E +E  E Q
|-0--0-0-(0)-0-0--|-2--2-2-(2)-2-2--|-2--2-2-(2)-2-2--|-3--3-3-(3)-3-3---|
|-2--2-2-(2)-2-2--|-3--3-3-(3)-3-3--|-3--3-3-(3)-3-3--|-0--0-0-(0)-0-0---|
|-2--2-2-(2)-2-2--|-2--2-2-(2)-2-2--|-2--2-2-(2)-2-2--|-0--0-0-(0)-0-0---|
|-2--2-2-(2)-2-2--|-0--0-0-(0)-0-0--|-0--0-0-(0)-0-0--|-0--0-0-(0)-0-0---|
|-0--0-0-(0)-0-0--|-----------------|-----------------|-2--2-2-(2)-2-2---|
|-----------------|-----------------|-----------------|-3--3-3-(3)-3-3---|


                                      Pre-Chorus
  A                                    Bm              F#m
                                    Gtrs I, II
  Q  E E +E  E Q    Q  E E +E  E Q     Q  E E E E Q    Q  E E E E Q
|-0--0-0-(0)-0-0--|-0--0-0-(0)-0-0--||-2--2-x-x-2-2--|-2--2-x-x-2-2---|
|-2--2-2-(2)-2-2--|-2--2-2-(2)-2-2--||-3--3-x-x-3-3--|-2--2-x-x-2-2---|
|-2--2-2-(2)-2-2--|-2--2-2-(2)-2-2--||-4--4-x-x-4-4--|-2--2-x-x-2-2---|
|-2--2-2-(2)-2-2--|-2--2-2-(2)-2-2--||-4--4-x-x-4-4--|-4--4-x-x-4-4---|
|-0--0-0-(0)-0-0--|-0--0-0-(0)-0-0--||-2--2-x-x-2-2--|-4--4-x-x-4-4---|
|-----------------|-----------------||---------------|-2--2-x-x-2-2---|


  G               A               G               D
  Q  E E E E Q    Q  E E E E Q    Q  E E E E Q    Q  E E E E Q
|-3--3-x-x-3-3--|-0--0-x-x-0-0--|-3--3-x-x-3-3--|-2--2-x-x-2-2---|
|-0--0-x-x-0-0--|-2--2-x-x-2-2--|-0--0-x-x-0-0--|-3--3-x-x-3-3---|
|-0--0-x-x-0-0--|-2--2-x-x-2-2--|-0--0-x-x-0-0--|-2--2-x-x-2-2---|
|-0--0-x-x-0-0--|-2--2-x-x-2-2--|-0--0-x-x-0-0--|-0--0-x-x-0-0---|
|-2--2-x-x-2-2--|-0--0-x-x-0-0--|-2--2-x-x-2-2--|----------------|
|-3--3-x-x-3-3--|---------------|-3--3-x-x-3-3--|----------------|


                                  Chorus
  A               D                G                 D
  Q  E E E E Q    Q  E E E E Q     Q  E E +E  E Q    Q  E E +E  E Q
|-0--0-x-x-0-0--|-2--2-x-x-2-2--||-3--3-3-(3)-3-3--|-2--2-2-(2)-2-2---|
|-2--2-x-x-2-2--|-3--3-x-x-3-3--||-0--0-0-(0)-0-0--|-3--3-3-(3)-3-3---|
|-2--2-x-x-2-2--|-2--2-x-x-2-2--||-0--0-0-(0)-0-0--|-2--2-2-(2)-2-2---|
|-2--2-x-x-2-2--|-0--0-x-x-0-0--||-0--0-0-(0)-0-0--|-0--0-0-(0)-0-0---|
|-0--0-x-x-0-0--|---------------||-2--2-2-(2)-2-2--|------------------|
|---------------|---------------||-3--3-3-(3)-3-3--|------------------|


                                                                To Coda
  A                 D                 G                 D
  Q  E E +E  E Q    Q  E E +E  E Q    Q  E E +E  E Q    Q  E E +E  E Q
|-0--0-0-(0)-0-0--|-2--2-2-(2)-2-2--|-3--3-3-(3)-3-3--|-2--2-2-(2)-2-2---|
|-2--2-2-(2)-2-2--|-3--3-3-(3)-3-3--|-0--0-0-(0)-0-0--|-3--3-3-(3)-3-3---|
|-2--2-2-(2)-2-2--|-2--2-2-(2)-2-2--|-0--0-0-(0)-0-0--|-2--2-2-(2)-2-2---|
|-2--2-2-(2)-2-2--|-0--0-0-(0)-0-0--|-0--0-0-(0)-0-0--|-0--0-0-(0)-0-0---|
|-0--0-0-(0)-0-0--|-----------------|-2--2-2-(2)-2-2--|------------------|
|-----------------|-----------------|-3--3-3-(3)-3-3--|------------------|


                            1.
  A                 G D/Em   D
                   2/4      4/4
  Q  E E +E  E Q    E E Q    Q  E E +E  E Q    Q  E E +E  E Q
|-0--0-0-(0)-0-0--|-3---0--|-2--2-2-(2)-2-2--|-2--2-2-(2)-2-2---||
|-2--2-2-(2)-2-2--|-0-3-0--|-3--3-3-(3)-3-3--|-3--3-3-(3)-3-3--o||
|-2--2-2-(2)-2-2--|-0-2-0--|-2--2-2-(2)-2-2--|-2--2-2-(2)-2-2---||
|-2--2-2-(2)-2-2--|-0-0-2--|-0--0-0-(0)-0-0--|-0--0-0-(0)-0-0---||
|-0--0-0-(0)-0-0--|-2---2--|-----------------|-----------------o||
|-----------------|-3-2-0--|-----------------|------------------||


  2.
  D
                                    Gt
  Q  E E +E  E Q    Q  E E +E  E Q
|-2--2-2-(2)-2-2--|-2--2-2-(2)-2-2--||
|-3--3-3-(3)-3-3--|-3--3-3-(3)-3-3--||
|-2--2-2-(2)-2-2--|-2--2-2-(2)-2-2--||
|-0--0-0-(0)-0-0--|-0--0-0-(0)-0-0--||
|-----------------|-----------------||
|-----------------|-----------------||
|
|                                   Gt
| W                 W
|-----------------|-----------------||
|-----------------|-----------------||
|-----------------|-----------------||
|-----------------|-----------------||
|-----------------|-----------------||
|-----------------|-----------------||


 Interlude
  G                        D
 Gtr I
   Q     E  E +E   E  Q     Q     E  E +E   E  Q
|--3-----3--3-(3)--3--3--|--2-----2--2-(2)--2--2---|
|--0-----0--0-(0)--0--0--|--3-----3--3-(3)--3--3---|
|--0-----0--0-(0)--0--0--|--2-----2--2-(2)--2--2---|
|--0-----0--0-(0)--0--0--|--0-----0--0-(0)--0--0---|
|--2-----2--2-(2)--2--2--|-------------------------|
|--3-----3--3-(3)--3--3--|-------------------------|
|
|Gtr II (El. Gtr.)
|  E  E  E  E  E   E  Q     E  E  E  E  E   E  Q
|-14-14-14-14-----12-10--|-12-12-12-12-----10--9---|
|-15-15-15-15-----14-12--|-14-14-14-14-----12-10---|
|------------------------|-------------------------|
|------------------------|-------------------------|
|------------------------|-------------------------|
|------------------------|-------------------------|


                                                   D.S. al Coda
  A                  G D/Em   D
                    2/4      4/4
  Q   E E +E  E Q    E E Q    Q  E E +E  E Q    Q  E E +E  E Q
|-0---0-0-(0)-0-0--|-3---0--|-2--2-2-(2)-2-2--|-2--2-2-(2)-2-2--||
|-2---2-2-(2)-2-2--|-0-3-0--|-3--3-3-(3)-3-3--|-3--3-3-(3)-3-3--||
|-2---2-2-(2)-2-2--|-0-2-0--|-2--2-2-(2)-2-2--|-2--2-2-(2)-2-2--||
|-2---2-2-(2)-2-2--|-0-0-2--|-0--0-0-(0)-0-0--|-0--0-0-(0)-0-0--||
|-0---0-0-(0)-0-0--|-2---2--|-----------------|-----------------||
|------------------|-3-2-0--|-----------------|-----------------||
|
| E E E E  E  E Q    E E Q    W                 W
|-7-7-7-7-----5-3--|-7-5-3--|-2---------------|-----------------||
|-8-8-8-8-----7-5--|-8-7-5--|-3---------------|-----------------||
|------------------|--------|-2---------------|-----------------||
|------------------|--------|-0---------------|-----------------||
|------------------|--------|-----------------|-----------------||
|------------------|--------|-----------------|-----------------||


  &
  A                 G D/Em D        A                 G D/Em D
  Gtrs I, II
  Q  E E +E  E Q    E E Q  E E Q    Q  E E +E  E Q    E E Q  E E Q
|-0--0-0-(0)-0-0--|-3---0--2-2-2--|-0--0-0-(0)-0-0--|-3---0--2-2-2---|
|-2--2-2-(2)-2-2--|-0-3-0--3-3-3--|-2--2-2-(2)-2-2--|-0-3-0--3-3-3---|
|-2--2-2-(2)-2-2--|-0-2-0--2-2-2--|-2--2-2-(2)-2-2--|-0-2-0--2-2-2---|
|-2--2-2-(2)-2-2--|-0-0-2--0-0-0--|-2--2-2-(2)-2-2--|-0-0-2--0-0-0---|
|-0--0-0-(0)-0-0--|-2---2---------|-0--0-0-(0)-0-0--|-2---2----------|
|-----------------|-3-2-0---------|-----------------|-3-2-0----------|


  A                 G                 A                 G
                                                      Gtr I
  Q  E E +E  E Q    Q  E E +E  E Q    Q  E E +E  E Q     Q     E  E +E   E Q
|-0--0-0-(0)-0-0--|-3--3-3-(3)-3-3--|-0--0-0-(0)-0-0--|--3-----3--3-(3)--3-3---|
|-2--2-2-(2)-2-2--|-0--0-0-(0)-0-0--|-2--2-2-(2)-2-2--|--0-----0--0-(0)--0-0---|
|-2--2-2-(2)-2-2--|-0--0-0-(0)-0-0--|-2--2-2-(2)-2-2--|--0-----0--0-(0)--0-0---|
|-2--2-2-(2)-2-2--|-0--0-0-(0)-0-0--|-2--2-2-(2)-2-2--|--0-----0--0-(0)--0-0---|
|-0--0-0-(0)-0-0--|-2--2-2-(2)-2-2--|-0--0-0-(0)-0-0--|--2-----2--2-(2)--2-2---|
|-----------------|-3--3-3-(3)-3-3--|-----------------|--3-----3--3-(3)--3-3---|
|
|                                                     Gtr II
| W                 W                 W                  E  E  E  E  E   E Q
|-----------------|-----------------|-----------------|-10-10-10-10------9-7---|
|-----------------|-----------------|-----------------|-12-12-12-12-----10-8---|
|-----------------|-----------------|-----------------|------------------------|
|-----------------|-----------------|-----------------|------------------------|
|-----------------|-----------------|-----------------|------------------------|
|-----------------|-----------------|-----------------|------------------------|


  D                      A                  D
   Q     E  E +E  E Q    Q   E E +E  E Q    W          +W
|--2-----2--2-(2)-2-2--|-0---0-0-(0)-0-0--|-2--------|-(2)----*|
|--3-----3--3-(3)-3-3--|-2---2-2-(2)-2-2--|-3--------|-(3)----*|
|--2-----2--2-(2)-2-2--|-2---2-2-(2)-2-2--|-2--------|-(2)----*|
|--0-----0--0-(0)-0-0--|-2---2-2-(2)-2-2--|-0--------|-(0)----*|
|----------------------|-0---0-0-(0)-0-0--|----------|--------*|
|----------------------|------------------|----------|--------*|
|
|  E  E  E  E  E  E Q    E E E E  E  E Q    W          +W
|--9--9--9--9-----7-5--|-7-7-7-7-----5-3--|-2--------|-(2)----*|
|-10-10-10-10-----8-7--|-8-8-8-8-----7-5--|-3--------|-(3)----*|
|----------------------|------------------|-2--------|-(2)----*|
|----------------------|------------------|-0--------|-(0)----*|
|----------------------|------------------|----------|--------*|
|----------------------|------------------|----------|--------*|
            
Submit corrections


        Changes In Latitudes lessons Hard to play? Try these video lessons and learn fast Changes In Latitudes lessons
        
↑ Back to top | Tablatures and chords for acoustic guitar and electric guitar, ukulele, drums are parodies/interpretations of the original songs. You may use it for private study, scholarship, research or language learning purposes only