Home » J » Jimi Hendrix »

Jimi Hendrix - Spanish Castle Magic Tabs

Artists:  A B C D E F G H I J K L M N O P Q R S T U V W X Y Z # 

Spanish Castle Magic Tabs

(ver. 1) Click to play this song!
Jimi Hendrix
 Rating:
4/5 (4 votes)
                e|---------------------------------|---------------------------------------|
B|---------------------------------|---------------------------------------|
G|---4h6~~~-6br8-/6~~-4----4-------|-------------------4~----------4-6b8-6~|
D|-----------------------6---4-----|----4-6/8-6--6-4-6---------4-6---------|
A|-----------------------------7-4~|4-7--------------------4h6-------------|
E|---------------------------------|---------------------------------------|

e|--------9---------------------------|9----9----9--------------9-|
B|------9---12b14~--12-9-12b14-12b14~~|--12---12---12-9-------9---|
G|11b13-------------------------------|-----------------11b13-----|
D|------------------------------------|---------------------------|
A|------------------------------------|---------------------------|
E|------------------------------------|---------------------------|

e|------9-------9--------9-12-9-----------9-12-9|------9--------------9----------------|
B|--------12b14----12b14--------12--12b14-------|--------12-9-------9---12p9-----------|
G|11b13-----------------------------------------|11b13--------11b13----------11-11-9---|
D|----------------------------------------------|------------------------------------11|
A|----------------------------------------------|--------------------------------------|
E|----------------------------------------------|--------------------------------------|

e|--------9-------12-9-12-9-12-9-12|-14b16-14----12-14-14b16-14-12----|
B|------9---12b14------------------|----------14-------------------14\|
G|9/11-----------------------------|----------------------------------|
D|---------------------------------|----------------------------------|
A|---------------------------------|----------------------------------|
E|---------------------------------|----------------------------------|

e|------12-14b16-14pbr16-12-----|14b16-14b16-14b16-14b16-14b16-12---|
B|12/14---------------------14~~|---------------------------------14|
G|------------------------------|-----------------------------------|
D|------------------------------|-----------------------------------|
A|------------------------------|-----------------------------------|
E|------------------------------|-----------------------------------|

e|17b19~-------------|
B|--------20b-20b----|
G|--------20b-20b-18\|
D|-------------------|
A|-------------------|
E|-------------------|            
Submit corrections

↑ Back to top | Tablatures and chords for acoustic guitar and electric guitar, ukulele, drums are parodies/interpretations of the original songs. You may use it for private study, scholarship, research or language learning purposes only