Home » J » Jimi Hendrix »

Jimi Hendrix - Somewhere Over The Rainbow Tabs

Artists:  A B C D E F G H I J K L M N O P Q R S T U V W X Y Z # 

Somewhere Over The Rainbow Tabs

(ver. 2) Click to play this song!
Jimi Hendrix
 Rating:
2.1/5 (28 votes)
                1. -------------------------------------3-------3-----------5h7p5-----------------------3-------------------|
2. -----8------------6------------------3-------3-----------5---------------------------3-------------------|
3. -----7------------5--------------------------4h5p4-------6-----------------------------------------------|
4. -----6--5---------4--3-----------------------5-----------7-------------5---5-------------------0---------|
5. -----7----7-------5----5-----------------------------------------------5h7-7p5-------------0h2---0-----0-|
6. ------------6-5----------4-3------0------3-----------5-----------5-5h7---------7/0-0-----3---------0h3---|


1. --------0-----------------------------------|
2. --2-----------------------------------------|
3. --2---2b--2p0---0-----2b--2b--2b---0-2-2b---|
4. --2-----------2---2-------------------------|
5. --------------------------------------------|
6. --------------------------------------------|            
Submit corrections

↑ Back to top | Tablatures and chords for acoustic guitar and electric guitar, ukulele, drums are parodies/interpretations of the original songs. You may use it for private study, scholarship, research or language learning purposes only