Home » J » Jimi Hendrix »

Jimi Hendrix - Room Full Of Mirrors Tabs

Artists:  A B C D E F G H I J K L M N O P Q R S T U V W X Y Z # 

Room Full Of Mirrors Tabs

(ver. 2) Click to play this song!
Jimi Hendrix
 Rating:
4/5 (4 votes)
                Jimi hendrix
Room full of mirrors - intro



--0-0--0-0-0------0---------0-0-0------------------------------------------
--0-0--0-0-0------0---------0-0-0------------------------------------------
--2^4--2-4-4------4---------4-2-4----------------------------~~~-----------
----------------------------------2^4--2-2-2--------4-X-X-X--2^4-----------
--------------2^4---4\2-0--------------2-4-2-4\2-0--4-X-X-X----------------
--------------------------2-------------------------2-X-X-X----------------

-----------0-0-0--0--------------------------------------------------------
-----------0-0-0--0-----------------------------------------------0-0------
-----------4-2-4--4(6)4(2)-------------------------------------------------
-------4-------------------2-2^4-----------4---2-2-2-------2/4----4-4------
-------------------------------------------------------2/4-----------------
-2-5-2----------------------------2-2-5-2-----5-5-5-------------2-----2-0--
            
Submit corrections

↑ Back to top | Tablatures and chords for acoustic guitar and electric guitar, ukulele, drums are parodies/interpretations of the original songs. You may use it for private study, scholarship, research or language learning purposes only