» » »

Jimi Hendrix - God Save The Queen Tabs

Artists:  A B C D E F G H I J K L M N O P Q R S T U V W X Y Z # 

God Save The Queen Tabs

(ver. 2) Click to play this song!
Jimi Hendrix
 Rating:
2.7/5 (24 votes)

 God Save The Queen lessons Tabs too difficult? Try these video lessons and learn fast
 
                Gtr I (Eb Ab Db Gb Bb Eb) - 'Jimi Hendrix - Electric Guitar'

  Free time Q=66
  N.C.
 4/4
  Gtr I
   Q    H      Q      W
|-[0]--[0]---------:-[0]--------:
|--0----------[0]--:-[0]--------:
|--0---------------:------------:
|--0---------------:------------:
|--0---------------:------------:
|--0---------------:------------:
   W


 3/4
    \1____/     \1____/     \1____/     \1____/
   +E.   +S    +E.    a    +S     a    +S     a    +E.
|-------------------------------------------------------:
|-([0])-([0])-([0])-([0])-([0])-([0])-([0])-([0])-([0])-:
|-------------------------------------------------------:
|-------------------------------------------------------:
|-------------------------------------------------------:
|-------------------------------------------------------:


                                                    In time Q=72
                                                       N.C.
 4/4                    3/4
                           \1____/
                                                           ~
  H       Q     Q         +E.   +S    +E     E  E E     Q  Q  a Q
|----------------------:----------------------------||-------------|
|--------------[0]-----:-([0])-([0])-([0])----------||-/5--5--5h7--|
|----------------------:----------------------------||-------------|
|-6---6---6-----6----5-:-------------------/14------||-------------|
|---5---5----5-----4---:----------------------------||-------------|
|----------------------:-----------------------15-0-||-------------|
  E E E E E. S  E  E E
                |-3--|


               ~                              ~~~~~~~    ~
  a E  Q   E a Q    a E. S E      S  S  Q     Q  +S  a E.Q
|-----------------|--------------[0]--------|---------------|
|-5s2s[4]s=5-5h7--|-7s9--9-9tr12-----9s10---|-9--(9)-5s7s5--|
|-----------------|-------------------------|---------------|
|-----------------|--------------------(0)--|---------------|
|-----------------|-------------------------|---------------|
|-----------------|-------------------------|---------------|


       ~    ~~                       ~~~~~
  a Q  Q  a Q    E  E  E E     E E   Q  Q  E S S
|--------------|-------------------|-------------|
|-5s7s=5--5s4s=|=5-----------------|-------------|
|--------------|-------------------|-4--4--4-4-4-|
|--------------|-----------------2-|-------------|
|--------------|---------------2---|-------------|
|--------------|---15\-0-3b3.5-----|-------------|


 4/4                        3/4
  ~                          ~                                    ~~~
    |---5---|
  E S S S S S E S S S S Q    Q  E   +E  T T S S S   S   S E Q  E +E
|--------------------------|----------------------|-------------------|
|--------------------------|----------------------|-------------------|
|-4-4h6p4h6p4s2h4p2h4p2s1--|-2--4b6r(4)-2h4p2-----|-4b6r4-2s1---------|
|--------------------------|------------------2h4-|------------4-(4)--|
|--------------------------|----------------------|-------------------|
|--------------------------|----------------------|-------------------|


                                       ritardando & freely Q=68
                         ~~
  S E. Q  S S S    +S    Q.   E   Q    a  Q  Q  E +E
|----------------------|-------------|-----------------:
|----------------------|-------------|-----------------:
|----------------------|-------------|-----------------:
|-5s7--6--6-7-9b10-(9)-|-------------|-9s11--7--6-(6)\-:
|----------------------|-7----9-/11--|-----------------:
|----------------------|-------------|-----------------:


  E  N.C.          C          N.C.
           |-3-|                    |-------3-------|
  Q  E S S E E E    E.S T T S S S a E a a a E a a a E
|----------------:-^0---------0-2-2h4-2h4p2p0-2h4p2p0-:
|----------------:-^1p0-1h3p1-0-----------------------:
|-1--------------:-^0---0-----------------------------:
|-2--------------:-^2---------------------------------:
|-2----------0-2-:-^3---------------------------------:
|-0--0-0-2-3-----:------------------------------------:


                                                               D5
  |-3-|                                       |3|
  T T T X X X X S S S S S S E. a S   E a S S  E S S. T S   +S  E
|-4p2p0-4p2p0h2--------------------:-----------------------------:
|----------------------------------:---------------------------3-:
|----------------------------------:---------------------------2-:
|---------------0---0-2---0-2------:-0-----2------2------------0-:
|---------------0-3-----3------2s3-:---2s3---/2-2----2-----------:
|----------------------------------:-------------------3b4-(3)---:


  N.C.
  a E S S +S  E a S +S  S S S   E   +S  S a S S S S S S  E
|---0-0-0-(0)-0---0-(0)-------:-----------------------------:
|-3s5-5-5-(5)-7-7s9-(9)s7p5-7-:-7b9r(7)p5-5h7-5---5---5-----:
|-----------------------------:-----------------6---6-------:
|-----------------------------:-----------------------------:
|-----------------------------:-----------------------------:
|-----------------------------:-------------------------19\-:


                 Faster Q=116
 4/4
  H    Q   Q     W
|--------------:------*|
|--------------:------*|
|--------------:------*|
|--------------:------*|
|--------------:------*|
|-0-------[0]--:------*|
  W
            
Submit corrections


        God Save The Queen lessons Hard to play? Try these video lessons and learn fast God Save The Queen lessons
        
↑ Back to top | Tablatures and chords for acoustic guitar and electric guitar, ukulele, drums are parodies/interpretations of the original songs. You may use it for private study, scholarship, research or language learning purposes only