» » »

Jimi Hendrix - Day Tripper Tabs

Artists:  A B C D E F G H I J K L M N O P Q R S T U V W X Y Z # 

Day Tripper Tabs

(ver. 2) Click to play this song!
Jimi Hendrix
 Rating:
1.9/5 (27 votes)

 Day Tripper lessons Tabs too difficult? Try these video lessons and learn fast
 
                 Intro
  Q=148
  N.C.                                     B5              N.C.
 4/4
  Gtr I (El Gtr. - 1/2step down)
  H    Q   Q     Q.   E E E E E   +Q       E E +E  E E E   Q  E E E E E E
|--------------|----------------|------------------------|----------------|
|--------------|----------------|------------------------|----------------|
|--------------|----------------|------------4-(4)-------|----------------|
|--------------|------------2---|------------4-(4)---0-2-|----2-------2---|
|--------------|----------2---5-|-(5)b5.5--2-------2-----|----------2---5-|
|---------17\--|-0----3h4-------|------------------------|-0----3h4-------|


           B5              E
  +Q       E E +E  E E E   Q  E E E E E E
|------------------------|----0-------0---|
|------------------------|----0---0---0---|
|------------4-(4)-------|----1-------1-1-|
|------------4-(4)---0-2-|------------2-0-|
|-(5)b5.5--2-------2-----|----------2-----|
|------------------------|-0----3h4-------|


       B5              E          N.C.
  +Q   E E +E  E E E   Q  E E +E  E E E
|--------------------|----0--------------|
|--------------------|----0--------------|
|-(1)----4-(4)---0-1-|-1----0-(0)---9-7--|
|-(0)----4-(4)---0-2-|-2----------9------|
|------2-------2-----|-2-----------------|
|--------------------|-0-----------------|


                           1st Verse
                            E
   ~~~
  +Q   E E    +E  E E E     Q  E E Q  E E
|------------------------||----0----------|
|------------------------||----0----------|
|-(7)----9b11-(9)---7-9\-||----1-0h1------|
|------9----------9------||-----------2---|
|------------------------||-------------5-|
|------------------------||-0-------------|


           B5              E
  +Q       E E +E  E E E   Q  E E Q  E E
|------------------------|----0-----------|
|------------------------|----0-----------|
|------------4-(4)-------|----1-0h1-------|
|------------4-(4)---0-2-|-----------2----|
|-(5)b5.5--2-------2-----|-------------5--|
|------------------------|-0--------------|


           B5              A
  +Q       E E +E  E E E   Q  E E E E E E
|------------------------|----0---0-------|
|------------------------|----2---0-----0-|
|------------4-(4)---0-1-|----2-------2---|
|------------4-(4)---0-2-|----------2---5-|
|-(5)b5.5--2-------2-----|-0----3h4-------|
|------------------------|----------------|


                           E
   Q       E E +E  E E E   Q  E E E E E E
|------------0-(0)-------|----0------------|
|--0---------0-(0)-------|----0-0----------|
|------------0-(0)---0-2-|----1-0h1--------|
|-(5)b5.5--2-------2-----|------------2----|
|------------------------|----------2---5--|
|------------------------|-0--------0------|


                          Chorus
           B5              F#7                     Gmaj7   F#7
  +Q       E E +E  E Q     Q  E E Q  Q    Q  E E E E E E   Q  E E E E E E
|-----------------------||--------------|----------------|-----------------|
|-----------------------||--------5--5--|-5--------------|----2------------|
|------------4-(4)---0--||----3---3--3--|-3--3---3---4---|----3---3---3----|
|------------4-(4)---0--||----2---------|----2---2---4---|----2---2---2----|
|-(5)b5.5--2-------2----||--------------|----------------|-----------------|
|-----------------------||-2------------|------2---3---0-|-2------------2--|


                    A7                G#m7              C#7+9
  Q  E E E E E  E   E E E E E E E E   E E E E E E E E   Q  E E E E Q
|-----------------|-----------------|-----------------|----------------|
|-----------------|-----------------|-----------------|----5---5---5---|
|-3--3---3---3----|-----6-----------|-4---------------|----4---4---4---|
|-2--2---2---2----|-----5-----------|-4---------------|----3---3---3---|
|-----------------|-----------------|-----------------|-4--4-----------|
|------2---2---/5-|-5-5---5-5-5-5-5-|---4-4-4-4-4-4-4-|----------------|


  B5                   E5   N.C.
  E E E E E E Q        Q.   E E E E E
|--------------------|----------------|
|--------------------|----------------|
|-----4---4----------|----------------|
|---4-4-4-4-4--------|------------2---|
|-2-2-2-2-2-2--------|-2--------2---5-|
|-------------3b3.5--|-0----3h4-------|


  +Q       E E +E  E E E   Q  E E E E E E
|------------------------|-----------------|
|------------------------|-----------------|
|------------------------|-----------------|
|------------4-(4)---0-2-|----2-------2----|
|-(5)b5.5--2-------2-----|----------2---5--|
|------------------------|-0----3h4--------|


                           2nd Verse
                            E
  +Q       E E +E  E E E    Q  Q  Q  E E
|------------------------||----0---------|
|------------------------||----0--0--0---|
|------------------------||----1---------|
|------------4-(4)---0-2-||--------------|
|-(5)b5.5--2-------2-----||------------5-|
|------------------------||-0------------|


  +Q       E E +E  E Q    Q  E E E E E E
|-----------------------|----0-------0----|
|------------0-(0)-0----|----0-------0----|
|------------------0-0--|----1-------1----|
|------------4-(4)------|-----------------|
|-(5)b5.5--2------------|----------2---5--|
|-----------------------|-0----3h4--------|


                          A
  +Q       E E +Q   E E   Q  E E E E E E
|------------0-(0)------|----0-----------|
|------------0-(0)------|----2-------2-0-|
|----------0-0-(0)--0-2-|-2--2-------2---|
|-----------------------|-2--------2---5-|
|-(5)b5.5---------------|------3h4-------|
|-----------------------|----------------|


                               E
  +Q       E E +E      E E E   Q  E E E E E E
|------------0-(0)-----------|----0------------|
|------------0-(0)-------0---|----0------------|
|------------4-(4)b4.5---0-2-|----1-------1----|
|-(5)b5.5--2-----------2-----|------------2----|
|----------------------------|----------2---5--|
|----------------------------|-0----3h4--------|


                          Chorus
                           F#7+9                                        F#7
  +Q       E E +E  E Q     Q  E E E E E E   Q  E E E E E E   Q  Q  Q  E E
|-----------------------||----5---5-5-----|-5--5---5---5---|-5-------------|
|------------0-(0)---0--||----5---5-5-5---|-5--5---5-5-5---|-5--------5----|
|------------0-(0)---0--||--------3---3---|-3--3---3---3---|-3-----3--3----|
|------------4-(4)------||----------------|----------------|---------------|
|-(5)b5.5--2-------2----||----------------|----------------|---------------|
|-----------------------||-2------------2-|------2-------2-|----2-------2--|


                   A9               G#5               C#5
  E E E E Q  E E   Q  e E E E E E   E E E E E E E E   Q  E E Q  Q
|----------------|----------------|-----------------|---------------|
|-5--------------|----0-------0---|-----------------|---------------|
|-3-------3------|----6-------0---|-----------------|--------4------|
|---------2--2---|----5-----------|---------------4-|-6--8-4-4--4---|
|--------------0-|----------------|---6-8---6-6-8---|-4--4-4--------|
|---2-2-2--------|-5------5-5---4-|-4-4-4-4-4-4-4---|---------------|


                       Guitar Solo 1
  B5                    B7+9                    N.C.
                                                  ~~~~~~~~
   Q   E E E E E  E     W          +W           S E. +H     E E
|--------------------||----------|------------|------------------|
|--------------------||-3--------|-(3)--------|------------------|
|--4-----------------||-2--------|-(2)--------|---9--(9)p===7-7--|
|-(4)--4-4-4-4-------||-1--------|-(1)--------|------------------|
|------2-2-2-2-2-(0)-||-2--------|-(2)--------|------------------|
|-----------------0--||----------|------------|------------------|


                 ~~~~~~~~~~~~
         |3|
  E.   S Q E +E  Q.     +Q     E E E    E S S  S S
|---------------------|-------------------7--------|
|---------------------|-----------------7---7-10-7s|
|-9b11-7-7s9-(9)------|----------7-9b11------------|
|----------------9----|-(9)\--/9-------------------|
|---------------------|----------------------------|
|---------------------|----------------------------|


          ~~~~~~~~~~
  Q      +Q   +Q      E E   E E    S S S S E  E      +Q
|-------------------------|-7-9b11-7h9p7---7---------------|
|-9b10===(9)--(9)r\-----7-|--------------9---10b12==(10)---|
|--------------------/8---|--------------------------------|
|-------------------------|--------------------------------|
|-------------------------|--------------------------------|
|-------------------------|--------------------------------|


                           |-3-|
   +S   S S  S E E    E E  E E E   +E  E S  S E E    S  S S S     S S
|-------7------7--------7--------|-------7----------------------------|
|-(10)r---7h10--------7---10-7---|-----7---10-7------7h10p7------10p7-|
|----------------9b11----------9-|-(9)----------9b11--------9b11------|
|--------------------------------|------------------------------------|
|--------------------------------|------------------------------------|
|--------------------------------|------------------------------------|


                                   ~~~~
  +S  E     S S E    S E.  S      +Q
|----------10---------------------------|
|-(7)------10p7-----------10b12==(10)---|
|-----9b11------9b11-9-7----------------|
|---------------------------------------|
|---------------------------------------|
|---------------------------------------|


    ~~~~~
   +H      E  E    E  E        +Q    +E. S  S S S S S S S  S
|----------7-------7--------|--------------------------------|
|-(10)r------10b12---10b15==|=(10)r=(10)-7h10p7---7h9p7------|
|---------------------------|-------------------9-------9h11p|
|---------------------------|--------------------------------|
|---------------------------|--------------------------------|
|---------------------------|--------------------------------|


               |-3--| |--3---|
  S S E E E    E E  E E E    E
|--------------7-7--------------|
|------------------10-7---------|
|-9p7---7-9b11----------9b11-9--|
|-----9-------------------------|
|-------------------------------|
|-------------------------------|


                        ~~~~~~~~~
  E E S S S S  E      E Q    +E. S +S  E. +Q    E   E
|--------------------------|---------------------------|
|--------------------------|---------------------------|
|-7------------------------|-----------7--(7)--[7]-----|
|---9-7---------------7h9--|-(9)-9-(9)-x--(x)------[9]-|
|-------9-8-7--------------|---------------------------|
|-------------10b10.5------|---------------------------|


            ~~~~~~
   E. S +E  E +Q.   E   E E E    E E E     +E   E
|---------------------|------------7------------------|
|---------------------|----------7-7-9-----(9)--7-----|
|-----7-(7)-----------|---7-9b11-----9b11==(9)r-9b11--|
|-[7]-------7-(7)---7h|=9-----------------------------|
|---------------------|-------------------------------|
|---------------------|-------------------------------|


  +E   E     +E   E E      E E E   Q.   E E E E E
|--------------------------------|----------------|
|-(7)--7-----(7)-----------------|----------------|
|-(9)r-9b11==(9)r-9-9pb11\-------|----------------|
|--------------------------------|------------2---|
|--------------------------2-2---|----------2---5-|
|------------------------------4-|-0----3h4-------|


   ~~~
  +Q   E E +E  E E E   Q.   E E E E E
|--------------------|-----------------|
|--------------------|-----------------|
|--------------------|-----------------|
|--------4-(4)---0-2-|------------2----|
|-(5)--2-------2-----|----------2---5--|
|--------------------|-0----3h4--------|


                       3rd Verse
                        E
   ~~~                                    ~~~
  +Q   E E +E  E E E    Q  E E E E E E   +Q   E E +E  E E E   Q  E E E E E E
|--------------------||----------------|--------------------|-----------------|
|--------------------||----0-----------|--------------------|----0------------|
|--------------------||----1-----------|--------------------|----1------------|
|--------4-(4)-2-2-2-||-2----------2---|--------4-(4)---0-2-|-2----------2----|
|-(5)--2-------------||----------2---5-|-(5)--2-------2-----|----------2---5--|
|--------------------||------3h4-------|--------------------|------3h4--------|


                       Asus2                                 E
   ~~~                              ~~~~~~~~
                                                     |-3-|
  +Q   E E +E  E E E   Q  E E E E E E   +Q   E E E E E E E   Q  E E E E E E
|--------------------|----0-----------|--------------------|----------------|
|--------------------|----0-----------|--------2s3-3-5p3p0-|----0-----------|
|--------------------|------------2---|--------3s4---------|----1-----------|
|--------4-(4)---0-2-|-2--------2---5-|-(5)--2-------------|------------2---|
|-(5)--2-------2-----|-0----3h4-------|--------------------|----------2---5-|
|--------------------|----------------|--------------------|-0----3h4-------|


                      Chorus
                       N.C.
   ~~~                                            ~~~~~~~~
  +Q   E E +E  E Q     Q  Q  E E Q    Q  Q  E E E E   +H     Q  E E
|-------------------||--------------|---------------|----------------|
|-------------------||--------------|---------------|----------------|
|----------------0--||--------------|---------------|-------------2--|
|--------4-(4)---0--||----4--4-2----|-4--4--2-----4-|-(4)----4--4----|
|-(5)--2-------2----||-----------4--|---------2-----|----------------|
|-------------------||-2------------|-----------2---|----------------|


                          A5          G#5                    C#5  B5/C#
  E   E E E   +E  E E E   Q  E E Q.   E   +E  E E E E E Q    Q  E E +H
|-----------------------|---------------|------------------|---------------|
|-----------------------|---------------|------------------|---------------|
|-4b6-----4b6r(4)-2-----|---------------|------------------|----6-4-(4)----|
|-------------------4---|---------------|------------------|-6--6-4-(4)----|
|-----------------------|-7--9---7----6-|-(6)-6-8-6-9---6--|-4-------------|
|---------------------4-|-5----5-5----4-|-(4)-4-4-4---4-4--|---------------|


                  Guitar Solo 2
  B7+9             E5   N.C.                             B7+9       B7
  Q  E E Q  E E    Q.   E +E  Q  E   +Q   E E +E  E Q    Q.   E +E  E E E
|---------------||-----------------|-------------------|-------------------|
|--------3------||-----------------|-------------------|------3-(3)---0-0--|
|------2-2------||-----------------|-------------------|-2----2-(2)-2-2-2--|
|----1---1------||-----------------|-------------------|-1----1-(1)-1-1-1--|
|-2---------2---||-2----2-(2)-2--2-|-(2)--2-2-(2)-2-2--|-------------------|
|-------------0-||-0---------------|-------------------|-------------------|


    N.C.
           ~~~
                                   |-3--|             |3-|
  E E E E +E  E E E   E  S S  S S  S S  S S  T T  S S E  Q
|---------------7-7-|-7-10p7----7-10p7----7-10p7----7-7-10-|
|-0-----------------|--------10--------10--------10--------|
|-2-2s7-7-(7)-7-----|--------------------------------------|
|-1-----------------|--------------------------------------|
|-------------------|--------------------------------------|
|-------------------|--------------------------------------|


         |--3--|
   a  E  S  S  S  E  E  a  E.  S  S  S  E
|-10s12-10h12p10----10-12s14--14-14-------|
|----------------12-----------------12-12-|
|-----------------------------------------|
|-----------------------------------------|
|-----------------------------------------|
|-----------------------------------------|


   E  E   E  S  S  S  S  S  S  S  S  S  S
|--------17-17-17-17-17-17-17-17-17-17-17-|
|-12-12/----------------------------------|
|-----------------------------------------|
|-----------------------------------------|
|-----------------------------------------|
|-----------------------------------------|


   E      S  S   S  S  S  S  S  S  S  S  S  S  S  S
|-17b19==17-17r-17----17-------14-17----------17----|
|------------------19----19-17-------19-17-19----19-|
|---------------------------------------------------|
|---------------------------------------------------|
|---------------------------------------------------|
|---------------------------------------------------|


                        |-3-|
   Q.      E  E      E  E   S  S  S
|---------17--------17-----17----17-|
|-17b19------17b19=====17r----17----|
|-----------------------------------|
|-----------------------------------|
|-----------------------------------|
|-----------------------------------|


   S  S  S  S  S E  S E  E      +S    S  S  S    Q      E     E  E  E     E  E
|-17-17-17-17-16---------------------17-17-17-|--------------17-17-------17-17--|
|------------------17---17b19==(17)r----------|-17b19--17b19-------17b19--------|
|---------------------------------------------|---------------------------------|
|---------------------------------------------|---------------------------------|
|---------------------------------------------|---------------------------------|
|---------------------------------------------|---------------------------------|


                      Outro
                                                             E5   N.C.
                                         ~~~
   Q      Q   H        Q.   E E E E E   +Q   E E +E  E E E   E Q  E E E E E
|--------17---------||----------------|--------------------|---0-------------|
|-17b19-------------||----------------|--------------------|---0-------------|
|-------------------||----------------|--------------------|-4---------------|
|-------------------||------------2---|--------4-(4)---0-2-|-2----------2----|
|-------------------||----------2---5-|-(5)--2-------2-----|----------2---5--|
|------------14\----||-0----3h4-------|--------------------|------3h4--------|


   ~~~
  +Q   E E e E E E   Q  Q  E E E E
|------------------|----0----------|
|------------------|----0----------|
|------------------|---------------|
|------0-4-----0-2-|-----------2---|
|-(5)--2---2-2-----|---------2---5-|
|------------------|-0-----4-------|


                                              ~
  +Q       E E +E  E E E   Q  E E E E E E   E Q  E E E E E
|------------------------|----------------|------------------|
|------------------------|----0-----------|------------------|
|------------------------|----------------|------------------|
|------------4-(4)---0-2-|------------2-5s|=7-5--------------|
|-(5)b5.5--2-------2-----|----------2-----|------7-5---------|
|------------------------|-0----3h4-------|----------7-6-5---|


  Q.   E E E a E E   +Q       E E +E  E E E   Q.   E E E E E
|------------------|------------------------|----------------|
|------------------|------------------------|----------------|
|------------------|------------------------|----------------|
|------------5s7---|------------4-(4)---0-2-|------------2---|
|----------2-----5-|-(5)b5.5--2-------2-----|----------2---5-|
|-0----3h4---------|------------------------|-0----3h4-------|


  +E  E a E E E E E E    Q  E E E   E a S S E
|----------------------|----0------------------|
|----------------------|----0-0-----0----------|
|----------------------|--------2b3------------|
|-----0-5s7-5----------|--------------5s7------|
|-(5)-2-------7-6-5----|--------------------5--|
|-------------------7\-|-0---------------------|


                      |-3-|   |-3-|
  +E  E S S S S S S E E E E   E E E S S S S S S S S S S S S
|---------------------------|-------------------------------|
|-------5p3p0-5p3p0-5-5p3p0-|-5p3p0-5p3p0-5p3p0-5p3p0-5p3p0-|
|-----0-------------0-------|-------------------------------|
|-----0---------------------|-------------------------------|
|-(5)-0---------------------|-------------------------------|
|---------------------------|-------------------------------|


                          |-3-|
  S S S S S S S S S S S S S S S S S   S S S S E E S S E E E
|-----------------------------------|--------------------------|
|-5p3p0-5p3p0-5p3p0-5p3p0-5p3p0-5p3p|=0-5p3p0------------------|
|-----------------------------------|--------------------------|
|-----------------------------------|---------------------5b7r=|
|-----------------------------------|-----------0-2h5p2-0------|
|-----------------------------------|---------3----------------|


                                           T
  +E  S S E E a S S S S E E   H      Q     Q
|---------------------------|-----------------|
|-----5p3p0-3-0h3h5p3p0-----|-----------------|
|-----------------------0-2-|-2b4----2b4--19--|
|-(5)-----------------------|-----------------|
|---------------------------|-----------------|
|---------------------------|-----------------|


                  H.=H
                                ~~~
  H      H        H      Q     +Q
|---------------|--------------------|
|---------------|--------------------|
|-2b4----2b4----|-2b4----2b4===(2)---|
|---------------|--------------------|
|---------------|--------------------|
|---------------|--------------------|


   ~~~~~~~~~~~~~~~~~~~~~~~~~~~~~~~~~~~~~
  +H      +H         +Q     +Q     +Q    +Q
|-----------------|---------------------------|
|-----------------|---------------------------|
|-(2)----([2])----|-([2])--([2])--([2])--(2)--|
|-----------------|---------------------------|
|-----------------|---------------------------|
|-----------------|---------------------------|


    |-----3-----|
   +Q    +Q    +Q    +Q     +Q      Q.    +S  S E   E  Q
|---------------------------------|------------------------*|
|---------------------------------|------------------------*|
|-([2])-([2])-([2])-([2])--([2])--|-2b3r==(2)-0------------*|
|---------------------------------|------------------------*|
|---------------------------------|---------------/16\-----*|
|---------------------------------|------------------------*|            
Submit corrections


        Day Tripper lessons Hard to play? Try these video lessons and learn fast Day Tripper lessons
        
↑ Back to top | Tablatures and chords for acoustic guitar and electric guitar, ukulele, drums are parodies/interpretations of the original songs. You may use it for private study, scholarship, research or language learning purposes only