» » »

Jesus Culture - We Stand Tabs

Artists:  A B C D E F G H I J K L M N O P Q R S T U V W X Y Z # 

We Stand Tabs

(ver. 1) Click to play this song!
Jesus Culture
 Rating:
4.3/5 (22 votes)

 We Stand  lessons Tabs too difficult? Try these video lessons and learn fast
 
                -------------------
INTRO - I think the first 2 times he does it its delayed alot then the delay is reduced.
******
e|-------10-7-|-------10-7-|-------10-7---8--7----|-------10-7---8--7----|
B|-8---8------|-8---8------|-8---8--------------8-|-8---8--------------8-|
G|---7--------|---7--------|---7------------------|---7------------------|
D|------------|------------|----------------------|----------------------|
A|------------|------------|----------------------|----------------------|
E|------------|------------|----------------------|----------------------|


-------------------
00:29
VERSE 1
********

  01:03        01:17
e|-------10-7-|-------10-7-|
B|-8---8------|-8---8------|
G|---7--------|---7--------|
D|------------|------------|
A|------------|------------|
E|------------|------------|


-------------------
01:24
CHORUS
*******
e|---|-10--7-----8-|------7---|-10--7-----8-|------7---|-10--7-----8-|------7---|-10--7-7--------|
B|-8-|--------8----|-8-10---8-|--------8----|-8-10---8-|--------8----|-8-10---8-|----------10-10-|
G|---|-------------|----------|-------------|----------|-------------|----------|----------------|
D|---|-------------|----------|-------------|----------|-------------|----------|----------------|
A|---|-------------|----------|-------------|----------|-------------|----------|----------------|
E|---|-------------|----------|-------------|----------|-------------|----------|----------------|


-------------------
01:51
BREAK
******
e|-------10-7---8--7----|-------10-7---8--7----|
B|-8---8--------------8-|-8---8--------------8-|
G|---7------------------|---7------------------|
D|----------------------|----------------------|
A|----------------------|----------------------|
E|----------------------|----------------------|


-------------------
02:05
VERSE 2
********

  02:12        02:26
e|-------10-7-|-------10-7-|
B|-8---8------|-8---8------|
G|---7--------|---7--------|
D|------------|------------|
A|------------|------------|
E|------------|------------|


-------------------
02:33
CHORUS
*******
e|---|-10--7-----8-|------7---|-10--7-----8-|------7---|-10--7-----8-|------7---|-10--7-7--------|
B|-8-|--------8----|-8-10---8-|--------8----|-8-10---8-|--------8----|-8-10---8-|----------10-10-|
G|---|-------------|----------|-------------|----------|-------------|----------|----------------|
D|---|-------------|----------|-------------|----------|-------------|----------|----------------|
A|---|-------------|----------|-------------|----------|-------------|----------|----------------|
E|---|-------------|----------|-------------|----------|-------------|----------|----------------|


-------------------
03:02
BRIDGE
*******
e|-------------|-------------|-------------|---------|
B|-------3~~~~-|-------3~~~~-|-------3~~~~-|-1-0-----|
G|-0-2-4-------|-0-2-4-------|-0-2-4-------|-----2-2-|
D|-------------|-------------|-------------|---------|
A|-------------|-------------|-------------|---------|
E|-------------|-------------|-------------|---------|X4


-------------------
03:58
CHORUS
*******
e|---|-10--7-----8-|------7---|-10--7-----8-|------7---|-10--7-----8-|------7---|-10--7-7--------|
B|-8-|--------8----|-8-10---8-|--------8----|-8-10---8-|--------8----|-8-10---8-|----------10-10-|
G|---|-------------|----------|-------------|----------|-------------|----------|----------------|
D|---|-------------|----------|-------------|----------|-------------|----------|----------------|
A|---|-------------|----------|-------------|----------|-------------|----------|----------------|
E|---|-------------|----------|-------------|----------|-------------|----------|----------------|X2


END WITH
*********
e|-10--7-7--------|
B|----------10-10-|
G|----------------|
D|----------------|
A|----------------|
E|----------------|            
Submit corrections


        We Stand  lessons Hard to play? Try these video lessons and learn fast We Stand  lessons
        
↑ Back to top | Tablatures and chords for acoustic guitar and electric guitar, ukulele, drums are parodies/interpretations of the original songs. You may use it for private study, scholarship, research or language learning purposes only